PrimaNota.ru - самый крупный в мире бесплатный архив песенных текстов, аккордов, табулатур и нот


Mark Tremonti - Tie The Noose - таба, видео

Регистрация Запомнить меня
Войти через:  Facebook Google Twitter Vk Yandex Mail.ru

Mark Tremonti - Tie The Noose - таба, видео

Печатать
Просмотров: 128
Tremonti - "Tie The Noose"
From the album "Cauterize"
Tuning: Drop B (B F# B E G# C#)
tabbed by jjhand



Intro/ Verse Riff
            play 3x
|-------||-------------------------------------------|
|-------||-------------------------------------------|
|-------||-------------------------------------------|
|-------||-----------5-------------------------------|
|-12\---||-------4---3------3---6--0-----------------|
|-12\---||-0--0--4-------0--3---6--0---0--0--0-0-0---|
           PM PM         PM            PM_________
 
End of Intro
|---------------------------------------|
|---------------------------------------|
|---------------------------------------|
|-----------5---------------------------|
|-------4---3------3---6--0---5___------|
|-0--0--4-------0--3---6--0-------------|
           PM PM         PM            



Lyrics: All____     that it takes
        is a little before it breaks
        All____     that we kill
        will gain us nothing and it never will

Verse:
|-------------------------------------|----------------------------------------|
|-------------------------------------|----------------------------------------|
|-------------------------------------|----------------------------------------|
|----------5--------------------------|----------5-----------------------------|
|-------4--3----3---6-0---------------|-------4--3----3---6-0---6-5-3-0-6-5-3-0|
|-0--0--4-----0-3---6-0---0--0--0-0-0-|-0--0--4-----0-3---6-0------------------|
  PM PM       PM          PM_________   PM PM       PM          PM_________

|-------------------------------------|-------------------------------------|
|-------------------------------------|-------------------------------------|
|-------------------------------------|-------------------------------------|
|----------5--------------------------|----------5--------------7-----------|
|-------4--3----3---6-0---------------|-------4--3----3---6-0---------------|
|-0--0--4-----0-3---6-0---0--0--0-0-0-|-0--0--4-----0-3---6-0---------------|
  PM PM       PM          PM_________   PM PM       PM          

|-------------------------------------|-----------------------------------------|
|-------------------------------------|-----------------------------------------|
|-------------------------------------|-----------------------------------------|
|----------5--------------------------|----------5------------------------------|
|-------4--3----3---6-0---------------|-------4--3----3---6-0---6-5-3-0-6-5-3-0-|
|-0--0--4-----0-3---6-0---0--0--0-0-0-|-0--0--4-----0-3---6-0-------------------|
  PM PM       PM          PM_________   PM PM       PM          PM_________

|-------------------------------------|-------------------------------------|
|-------------------------------------|-------------------------------------|
|-------------------------------------|-------------------------------------|
|----------5--------------------------|----------5--------------12\pick scrape
|-------4--3----3---6-0---------------|-------4--3----3---6-0---12\---------|
|-0--0--4-----0-3---6-0---0--0--0-0-0-|-0--0--4-----0-3---6-0---------------|
  PM PM       PM          PM_________   PM PM       PM          



Prechorus
|---------------------------------|---------------------------------|
|---------------------------------|---------------------------------|
|---------------------------------|---------------------------------|
|---------------------------------|---------------------------------|
|-------------6-3-------------3-6-|-------------6-3-----------------|
|-0---0---1-------0---0---1-------|-0---0---1-------0---0---1---1---|



|---------------------------------|---------------------------------|
|---------------------------------|---------------------------------|
|---------------------------------|---------------------------------|
|---------------------------------|---------------------------------|
|-------------6-3-------------3-6-|-------------6-3-----------------|
|-0---0---1-------0---0---1-------|-0---0---1-------0---0---1---1---|



Chorus

   play 3x                                           
|---------------------------------------------------|
|---------------------------------------------------|
|---------------------------------------5-5-5---5---|
|-3--3--3---3-5-5-5---5---0---0---0---0-5-5-5---5---|
|-3--3--3---3-5-5-5---5---0---0---0---0-3-3-3---3---|
|-3--3--3---3-5-5-5---5---0---0---0---0-------------|
"Tie the noose, watch the fall, Lie awake right through it all"
"Let's begin to lay to waste, Consume it all, burn everything"
"I don't care, I know who's wrong, You know what's right, knew it all along."


Ending (half as long as previous bars)
|-------------------------|
|-------------------------|
|-------------------------|
|-3-3-3---3---5-5-5---5---|
|-3-3-3---3---5-5-5---5---|
|-3-3-3---3---5-5-5---5---|
"Now take your stand or pay the price again"


Verse 2 - Only Bass for 4 bars, then play 4 bars of Verse 1 similarly


Play Prechorus & Chorus



Bridge - play 2x

1st and 3rd beats are triplets - see below
|-------------------------------------------------------|
|-------------------------------------------------------|
|-------------------------------------------------------|
|-------------------------------------------------------|
|--triplet---------------------triplet------------------|
|-13-13-12--0--0--0--0--0--0--13-13-12--0--7/8--0--0--0-|

|-------------------------------------------------------|
|-------------------------------------------------------|
|-------------------------------------------------------|
|-------------------------------------------------------|
|-------------------------------------------------------|
|-13-13-12--0--0--0--0--0--0--13-13-12--0--5\4--0--0--0-|

|-------------------------------------------------------|
|-------------------------------------------------------|
|-------------------------------------------------------|
|-------------------------------------------------------|
|-------------------------------------------------------|
|-13-13-12--0--0--0--0--0--0--13-13-12--0--7/8--0--0--0-|

|-----------------------------------------|
|-----------------------------------------|
|-----------------------------------------|
|-----------------------------------------|
|-----------------------5---5-4---1-0-----|
|-13-13-12--0--0--0--0--5---5-4---1-0-----|


Solo - with heavy wah
|--------------------|-----------------------------13-----15-----15-----15-----|
|--------------------|---------------15p10--13p10----15p13--15p13--15p13--15p13|
|---------10---------|-14p10--13p10-------10-----10----------------------------|
|-12gb15____--12gb15-|------12-----12------------------------------------------|
|--------------------|---------------------------------------------------------|
|--------------------|---------------------------------------------------------|

|-17b20---17~~----15p13-----15p13-----15p13-----15p13------|
|----------------------15p13-----15p13-----15p13-----15p13-|
|----------------------------------------------------------|
|----------------------------------------------------------|
|----------------------------------------------------------|
|----------------------------------------------------------|

|-15p13---------------------------------------------------------------|
|------13h15p13p12h13h15----------------------------------------------|
|-----------------------12h14h15p14p12--------------------------------|
|-------------------------------------12-10---------------------------|
|------------------------------------------12-11-10-10br11-8----------|
|------------------------------------------------------------/12~~~~--|

During solo, rhythm guitar plays Bridge again similarly.


As solo ends, Play Verse Riff again, ending with:
|------------------------------------|
|------------------------------------|
|-------------------7b~--------------|
|-----------5------------------------|
|-------4---3-------5b~--------------|
|-0--0--4-------0--------------------|



Play Chorus again

Play Bridge for song ending



************************************

| /   slide up
| \   slide down
| h   hammer-on
| p   pull-off
| ~   vibrato
| +   harmonic
| x   Mute note
| b   Bend
| pb  Pre-bend
| br  Bend release
| pbr Pre-bend release
| brb Bend release bend

************************************
Добавлено: 02.10.2015
Другие материалы по этой песне:

Страница создана 02.10.2015
http://primanota.ru/mark-tremonti/tie-noose-chords.htm
Привет, Гость.
Предлагаем пройти революционный курс по гитаре.
Подарок от PrimaNota.Ru, забирай!