PrimaNota.ru - самый крупный в мире бесплатный архив песенных текстов, аккордов, табулатур и нот


Mark Tremonti - Another Heart - таба, видео

Регистрация Запомнить меня
Войти через:  Facebook Google Twitter Vk Yandex Mail.ru

Mark Tremonti - Another Heart - таба, видео

Печатать
Просмотров: 149
Авторы музыки: Mark Tremonti
Авторы текста: Mark Tremonti
-------------------------------------------------------------------------------
                             Another Heart - Mark Tremonti
-------------------------------------------------------------------------------
Tabbed by:matrap_23

Tuning:Drop C#

Intro:x2(second time omit bar dive ending)
d#|-----------------------------------------------------------------|
a#|----------------------------------------------3------------------|
f#|-----------3----------------------------3-----2------------------|
c#|-4--3--1---3--0--4-3-4-4-3-1--0-4-3-----3-----0----------/12+----|
g#|-4--3--1---1--0--4-3-4-4-3-1--0-4-3-----1--0--0------------------|
c#|-4--3--1------0--4-3-4-4-3-1--0-4-3--------0--0------------------|
                 .               .            .       tremelo pick 

d#|-----------------------------------------------------------------|
a#|----------------------------------------------3------------------|
f#|-----------3----------------------------3-----2------------------|
c#|-4--3--1---3--0--4-3-4-4-3-1--0-4-3-----3-----0------------------|
g#|-4--3--1---1--0--4-3-4-4-3-1--0-4-3-----1--0--0------------------|
c#|-4--3--1------0--4-3-4-4-3-1--0-4-3--------0--0---0-0-b12-0--0\--|
                 .               .            .      .         bar dive        

verse:
d#|---------10-----------------------------------------9-----------------|
a#|----------------------------------------------------------------------|
f#|-7-------------2---------2---2---------2---6--------------------------|
c#|------0-------------0-------------0--------------0--------------------|
g#|----------------------------------------------------------------------|
c#|-8--8---8------3--3---3------3--3---3------7---7--7-------------------|


d#|---------10-----------------------------------------9---------------------|
a#|-----------------------------8----7---------------------------------------|
f#|-7-------------2---------0-----------7-----6------------------------------|
c#|------0-------------0---------------------------0-------------------------|
g#|--------------------------------------------------------------------------|
c#|-8--8---8------3--3---3------0--0---0------7---7--7-----------------------|


Prechorus:x2(second time no low C# ending)
d#|--------------------------------------------------------------------------|
a#|--------------------------------------------------------------------------|
f#|7-7-7-7--5-5-5-5--11111111--5-5-5-5--8-8-8-8--5-5-5-5--7-7-7-7------------|
c#|x-x-x-x--x-x-x-x--x-x-x-x---x-x-x-x--x-x-x-x--x-x-x-x--x-x-x-x------------|
g#|5-5-5-5--3-3-3-3--9-9-9-9---3-3-3-3--6-6-6-6--3-3-3-3--5-5-5-5---0-0-0-0--|
c#|-----------------------------------------------------------------0-0-0-0--|
                                                                    . . . .

Chorus:
d#|-1-1---1-1-1-----------3-3---3-3-3----------------------------------------|
a#|-1-1---1-1-1-----------3-3---3-3-3----------------------------------------|
f#|-3-3---3-3-3--5--5-5---5-5---5-5-5---7--7-7-------------------------------|
c#|-3-3---3-3-3--3--3-3---5-5---5-5-5---5--5-5-------------------------------|
g#|-1-1---1-1-1--3--3-3---3-3---3-3-3---5--5-5-------------------------------|
c#|--------------3--3-3-----------------5--5-5-------------------------------|

A)Bridge:(2nd guitar plays prechorus)
d#|--------------------------------------------------------------------------|
a#|--------------------------------------------------------------------------|
f#|--------------------------------------------------------------------------|
c#|--------------------------------------------------------------------------|
g#|-------------------------------------------------0------------------------|
c#|-let ring-0-----0-0-0-0-0-0-0-0---0-0-0-0-0-0-0--0--0-0-0-0-0--0-0-0-0-0-0|
                   . . . . . . .     . . . . . .       . . . .    . . . . . 
B)
d#|--------------------------------------------------------------------------|
a#|--------------------------------------------------------------------------|
f#|--------------------------------------------------------------------------|
c#|--------------------------------------------------------------------------|
g#|---------1---4----------0------1-----4------------------------------------|
c#|--0------1---4--0-0-0-0-0---0--1--0--4---0-0-0-0-----13--0--10-12---------|
 trem. pick        . . . .     .     .      . . . .

d#|--------------------------------------------------------------------------|
a#|--------------------------------------------------------------------------|
f#|--------------------------------------------------------------------------|
c#|--------------------------------------------------------------------------|
g#|1---4----------0------1-----4---------------------------------------------|
c#|1---4--0-0-0-0-0---0--1--0--4---0-0-0-0----------12\0---------------------|
          . . . .     .     .




Solo:(2nd guitar plays variation of Bridge B)
d#|-----------2-3---2-3--/11-10~--10hp11----10hp11----------------------------|
a#|-----1-3-4-----4-------------------11ph10-----11ph10-10hp11----10hp11------|
f#|-2-3------------------------------------------------------12ph11-----12ph11|
c#|---------------------------------------------------------------------------|
g#|---------------------------------------------------------------------------|
c#|---------------------------------------------------------------------------|

d#|----------10-11--/18-18-17---18-17---18-17----17br~-----------------------|
a#|11br---11-----------------16------15------16------------------------------|
f#|--------------------------------------------------------------------------|
c#|--------------------------------------------------------------------------|
g#|--------------------------------------------------------------------------|
c#|--------------------------------------------------------------------------|

     |x3|    |x3|
d#|-151718-15171820---17br-18b--22-20-18-17br---17------------1517181715-----|
a#|-------------------------------------------20--20-19----------------------|
f#|-----------------------------------------------------20~------------------|
c#|--------------------------------------------------------------------------|
g#|--------------------------------------------------------------------------|
c#|--------------------------------------------------------------------------|
    trem picked

d#|--------------------------------------------------------------------------|
a#|-16151315161513-----------------------------------------------------------|
f#|---------------15141214151412---------------------------------------------|
c#|-------------------------------13121012131210-----------------------------|
g#|---------------------------------------------1312101213121012~------------|
c#|--------------------------------------------------------------------------|

d#|------------------------------5-3-2---------------------------------------|
a#|-------------------10h11------------4--1h3p1---1--------------------------|
f#|-/12---/15-------11--------------------------3---3-2-0--------------------|
c#|-/13---/16----/12-12-----------------------------------4-1----------------|
g#|-----------------------------------------------------------3-3*br---------|
c#|--------------------------------------------------------------------------|

outro:x2
d#|-----------------------------------------------------------------|
a#|--------------------------------------------3--------------------|
f#|-----------3--------------------------3-----2--------------------|
c#|-4--3--1---3----4-3-4-4-3-1---4-3-----3-----0-0-0----------------|
g#|-4--3--1---1----4-3-4-4-3-1---4-3-----1--0--0-0-0----------------|
c#|-4--3--1--------4-3-4-4-3-1---4-3--------0--0-0-0----------------|

************************************

| /   slide up
| \   slide down
| h   hammer-on
| hp  hammer-on/pull-off
| ph  pull-off/hammer-on
| p   pull-off
| ~   vibrato
| +   harmonic
| x   Mute note
| b   Bend
| pb  Pre-bend
| br  Bend release
| pbr Pre-bend release
| brb Bend release bend

************************************
Добавлено: 02.10.2015
Другие материалы по этой песне:

Страница создана 02.10.2015
http://primanota.ru/mark-tremonti/another-heart-chords.htm
Привет, Гость.
Предлагаем пройти революционный курс по гитаре.
Подарок от PrimaNota.Ru, забирай!