PrimaNota.ru - самый крупный в мире бесплатный архив песенных текстов, аккордов, табулатур и нот


Mark Tremonti - Arm Yourself - таба, видео

Регистрация Запомнить меня
Войти через:  Facebook Google Twitter Vk Yandex Mail.ru

Mark Tremonti - Arm Yourself - таба, видео

Печатать
Просмотров: 39
Tremonti - "Arm Yourself"
From the album "Cauterize"
Tuning - Custom Drop C (C G C E A D) this is needed to reduce note-loss

TAB BY jjhand !! I only transposed it because I, and most people don't like C Stand. Too low.
I transposed it to Drop C, but you'll have to drop the G string down to a E note for the solo and harmony.

Main Riff:
  
*play 3x
D |--------------------------|-------------------------||
A |--------------------------|-------------------------||
E |--------------------------|-------------------------||
C |--------------------------|-------------------------||
G |--------------------------|-------------------------||
C |-0---0-0--0--0-0-0--0--0--|-4-4-4-0-0-0-1-1-1-4-4-4-||
          P  P  P P P  P  P    PM all*****************


*End of main riff
|--------------------------|--------------|
|--------------------------|--------------|
|--------------------------|--------------|
|--------------------------|-PH-----------|
|--------------------------|-3b5r---------|
|-0---0-0--0--0-0-0--0--0--|--------------|
        P  P  P P P  P  P   


*For Verse, play Main Riff 3x as before then add these bars before the repeat:

|-------------|--------------|
|-------------|--------------|
|-------------|--------------|
|-3-----------|--------------|
|-1-----------|-3------------|
|-------------|-3------------|


*Pre-Chorus 4x - Main Riff plays with Second Guitar playing higher harmony:            

|--------------------------|----------------------------||
|--------------------------|-7-7-7----------------7-7-7-||
|--------------------------|-------9-9-9-10-10-10-------||
|--------------------------|----------------------------||
|--------------------------|----------------------------||
|-0---0-0--0--0-0-0--0--0--|----------------------------||
        P  P  P P P  P  P   Tremolo picked


*Chorus
|-------------------|------------------|-----------------|-----------------------|
|-------------------|------------------|-----------------|-----------------------|
|-------------------|------------------|-----------------|-----------------------|
|-------------------|------------------|-----------------|-----------------------|
|-0-----------------|--------8-8-8-8---------------------|-----------------------|
|-0--------7--7--7--|-8----------------|-3------3--2--1--|-0------8-8-0-0-7-7-0-0|
                              PM*****                                 PM*     PM*

(They say a man who fears will suffer twice, the fear has surely died)


|-------------------|------------------|-----------------|
|-------------------|------------------|-----------------|
|-------------------|------------------|-----------------|
|-------------------|------------------|-----------------|
|-0-----------------|-------8-8-8-8----|-----------------|back to Main Riff
|-0--------7--7--7--|-8----------------|-3------3--2--1--|

(I throw a curse right into the rising sun, today this wil all be done)


*Play Verse and Chorus again, but the pre chorus is only played twice.

*Bridge play 2x
|-------------------|------------------|
|-------------------|------------------|
|-------------------|------------------|
|-------------------|------------------|
|-------------------|------------------|
|-1--1--------------|--0---------(0)---|

!! During the bridge and solo there's a low volume distorted strummed chord progression going on
this can't be transposed without changing the key. So you could figure something out yourself
I just solo over it and improvise !!

*Solo (listen to song for timing)
|----------------------------------------|----------5----------------------------|
|--------10-/15----15p13\10--------------|------------8-~--------6-8-10-10b-10-8-|
|---9-/12-------------------16p12\9-12p9-|------9-7------------------------------|
|----------------------------------------|/9-------------------------------------|
|----------------------------------------|---------------------------------------|
|----------------------------------------|---------------------------------------|

|---------------------------------------|------------------------------------|
|-10-----10-8-----1b3----------10-8---8-|--7~--------------------------------|
|---------------------------------------|--------------1--2---------4----2---|
|------------------------8/10-------8---|--7~--------------------------------|
|---------------------------------------|------------------------------------|
|---------------------------------------|------------------------------------|

*Play Chorus 2x

*Play Main riff to end the song, but replace the harmonic on thr 5th fret with this: 
 4-4-4-0-0-0-1-1-1-4-4-4 All palm muted ofcourse

*Second part plays harmony on ending like this:
D |--------------------------|-------------------------||
A |--------------------------|-------------------------||
E |--------------------------|-4-4-4-1-1-1-2-2-2-4-4-4-|| tremolo picked
C |--------------------------|-------------------------||
G |--------------------------|-------------------------||
C |-0---0-0--0--0-0-0--0--0--|-------------------------||
          P  P  P P P  P  P
Добавлено: 12.06.2016
Другие материалы по этой песне:
  • Аккорды и текст

Страница создана 12.06.2016
http://primanota.ru/mark-tremonti/arm-yourself-chords.htm
Привет, Гость.
Предлагаем пройти революционный курс по гитаре.
Подарок от PrimaNota.Ru, забирай!