PrimaNota.ru - самый крупный в мире бесплатный архив песенных текстов, аккордов, табулатур и нот


Marilyn Manson - Third Day Of A Seven Day Binge - таба, бас-таба, видео

Регистрация Запомнить меня
Войти через:  Facebook Google Twitter Vk Yandex Mail.ru

Marilyn Manson - Third Day Of A Seven Day Binge - таба, бас-таба, видео

Печатать
Просмотров: 1447
Author/Artist: Marilyn Manson
Title: Third Day Of A Seven Year Binge

m mute
A Arpeggio


Strum at the 22nd fret, straight pick.



Tuning (eb A D G B E)
Album Tuning (c# A D G B E), (c#, D) Down ~ 10%
Live Tuning (E E B B B B)
Key: (E + D) -> (E + A) or (D + C#)



----|--------|--|---------|
----|--------|--|---------|
----|--------|--|---------|
----|--------|--|---------|
----|--------|--|---------|
----|-1-1----|--|-1-4-4-4-|
         m

  Intro





----|------------|
----|------------|
----|-9----9-----|
----|-9-10-10-10-|
----|-9-10----10-|
----|---x-----x--|






----|-------------------------------------------------------------------------|
----|-------------------------------------------------------------------------|
----|-9-9--------9----9---------9----9--------9----9-----9-9---------9----9---|
----|-9-9--------9-9--9---------9-9--9--------9-10-10-10-9-9---------9-9--9---|
----|---10---------10-------------10----------9-10----10---10----------10-----|
----|--------------x--------------x-------------x-----x----------------x------|
        A   m           m              m      A            A  m             m

  Verse


----------------------------------------------------------------------------|
----------------------------------------------------------------------------|
---9----9--------9----9-----9--9--------9-----9--------5-5--------5---5-----|
---9-9--9--------9-12-12-12-10-10-------10-10-10-------7-7--------7-7-7-----|
-----10----------9-12----12----10----------10------------7----------7-------|
-----x-------------x-----x-----------------x------------------------x-------|
          m      A             A   m             m       A  m           m
Добавлено: 12.05.2015
Другие материалы по этой песне:

Страница создана 23.09.2014
http://primanota.ru/marilyn-manson/third-day-of-a-seven-day-binge-chords.htm
Привет, Гость.
Предлагаем пройти революционный курс по гитаре.
Подарок от PrimaNota.Ru, забирай!