PrimaNota.ru - самый крупный в мире бесплатный архив песенных текстов, аккордов, табулатур и нот


Marilyn Manson - You And Me And The Devil Makes Three - текст песни, бас-таба, видео

Регистрация Запомнить меня
Войти через:  Facebook Google Twitter Vk Yandex Mail.ru

Marilyn Manson - You And Me And The Devil Makes Three - текст песни, бас-таба, видео

Печатать
Просмотров: 169
Уроки эстрадного вокала в Санкт-Петербурге
Use heavy overdrive!

Tuning: Drop D

/: Slide Up
(): Ghost/Held Note

Intro 1x
G: |----------------------|
D: |----------------------|
A: |-------5---5-7--------|
D: |5/10-0---0-----0-0-3-0|

Verse/Chorus
G: |----------------------|
D: |----------------------|
A: |-------5---5-7--------|
D: |0-10-0---0-----0-0-3-0|

Pre-Chorus (These are sixteenths
G: |--------------------|
D: |--------------------|
A: |--------------------|
D: |10-8-10-7-10-6---(6)]

G: |-----------------------|
D: |-----------------------|
A: |-----------------------|
D: |7-6-5-3---(3)-3-1---(1)]

At one point in the song you'll play the verse/chorus rhythm, but just open Es

G: |-------------------|
D: |-------------------|
A: |-------------------|
D: |0-0-0-0-0-0-0-0-0-0|
Добавлено: 12.09.2015
Другие материалы по этой песне:
  • Аккорды и текст

Страница создана 02.10.2014
http://primanota.ru/marilyn-manson/you-and-me-and-devil-makes-three-chords.htm
Привет, Гость.
Предлагаем пройти революционный курс по гитаре.
Подарок от PrimaNota.Ru, забирай!