PrimaNota.ru - самый крупный в мире бесплатный архив песенных текстов, аккордов, табулатур и нот


Marilyn Manson - Killing Strangers - таба, бас-таба, видео

Регистрация Запомнить меня
Войти через:  Facebook Google Twitter Vk Yandex Mail.ru

Marilyn Manson - Killing Strangers - таба, бас-таба, видео

Печатать
Просмотров: 908
Авторы музыки: Tyler Bates
Авторы текста: Marilyn Manson
Tuning: Standard

Intro 0:16
e||----------------------------------------------------|
B||------(10)-(10)10------10----(10)-------------------|
G||-------10---10-10------10--10-12-12b14-12b14-12-----|
D||-12-12------------12----------------------------12--|
A||----------------------------------------------------|
E||----------------------------------------------------|

e||----------------------------------------------------|
B||------(10)-(10)10------10----(10)-------------------|
G||-------10---10-10------10--10-12-12b14-12b14-12-10--|
D||-12-12------------12--------------------------------|
A||----------------------------------------------------|
E||----------------------------------------------------|


Chorus 1:08 "We're killing stranger..."

e||----------------------------------------|
B||---6~--------------5~-------------------| x 3
G||-7--------------7-----------------------|
D||----------------------------------------|
A||----------------------------------------|
E||----------------------------------------|
  
e||----------------------------------------|
B||---5~------3~---------------------------|  
G||-7------7-------------------------------|
D||----------------------------------------|
A||----------------------------------------|
E||----------------------------------------|

Chorus x2

Post-Chorus 1:40
e||-----------------------------------------------------------------|
B||-5----------------5----------------5---------------5---5---------|
G||-7b9-7---------5--7b9-7---------5--7b9-7--------5--7b9-7b9r7-----|
D||-------------7----------------7---------------7------------------|
A||-----------------------------------------------------------------|
E||-----------------------------------------------------------------| 

Intro 1:56

2nd Chrous 2:44 "We're killing stranger..."

e||----------------------------------------|
B||----------------------------------------|  
G||-7~--5---7~--5--7~----------------------|
D||----------------------------------------|
A||----------------------------------------|
E||----------------------------------------|

2:56 "so we don't kill the ones that we love"

e||----------------------------------------|
B||----------------------------------------|  
G||----------------------------------------|
D||-6--6--6--6\4---------------------------|
A||-6--6--6--6\4---------------------------|
E||-4--4--4--4\2---------------------------|


Post Chorus 3:00

Intro 3:16

Chorus 3:48

Post Chorus 4:20

Solo 4:35

e||---------------------|
B||-8-----(8)-10-10-----| x3
G||-10b12-10-------7-10-|
D||---------------------|
A||---------------------|
E||---------------------| 

e||---------------------------------------|
B||-13----13-----10----10-----8------6----|
G||-15b17-15b17--12b14-12b14--10b12--8b10-|
D||---------------------------------------|
A||---------------------------------------|
E||---------------------------------------|



Добавлено: 12.05.2015
Другие материалы по этой песне:
  • Аккорды и текст

Страница создана 12.05.2015
http://primanota.ru/marilyn-manson/killing-strangers-chords.htm
Привет, Гость.
Предлагаем пройти революционный курс по гитаре.
Подарок от PrimaNota.Ru, забирай!