PrimaNota.ru - самый крупный в мире бесплатный архив песенных текстов, аккордов, табулатур и нот


Marilyn Manson - Sweet Dreams Are Made Of This - текст песни, таба, видео

Регистрация Запомнить меня
Войти через:  Facebook Google Twitter Vk Yandex Mail.ru

Marilyn Manson - Sweet Dreams Are Made Of This - текст песни, таба, видео

Печатать
Просмотров: 701


Sweet Dreams(live)Hell Outro

      main riff

e----------------------------
b----------------------------
g----------------------------
d---5-6-5--------------------
a-33-3-3-3--6/8--5/6---------
E---------44---33------------

        Chorus

e---------------------------------------
b---------------------------------------
g----------------555555555-5------------
d-6666666666-5-5-555555555-5-66666666666
a-6666666666-5-5-333333333-3-66666666666
E-4444444444-3-3-------------44444444444


e--------------------------
b--------------------------
g--------------------------
d-5-6666666666-5-5-5-5-----
a-5-6666666666-5-5-5-5-----
E-3-4444444444-3-3-3-3-----



  Then play main riff with wa-wa 4 times



   Solo2

e----8/11------------------------------------
b-11~----11/13/11----------------------------
g----------------11--------------------------
d------------------10-8-10--------------------
a-------------------------9~9~9~9~------8-10-10
E---------------------------------8-8-11-------


e---------------11-13-15
b-------------11--------11~
g-----8-10-12~------------
d-8-10---------------------
a----------------------------
E----------------------------




And thats all you need to know good luck

     Submited by Sean Angeledes


Добавлено: 25.10.2013
Другие материалы по этой песне:

Страница создана 13.03.2012
http://primanota.ru/marilyn-manson/sweet-dreams-are-made-of-this-chords.htm
Привет, Гость.
Предлагаем пройти революционный курс по гитаре.
Подарок от PrimaNota.Ru, забирай!