PrimaNota.ru - самый крупный в мире бесплатный архив песенных текстов, аккордов, табулатур и нот


Marilyn Manson - Sweet Tooth - аккорды и текст, таба, бас-таба, видео

Регистрация Запомнить меня
Войти через:  Facebook Google Twitter Vk Yandex Mail.ru

Marilyn Manson - Sweet Tooth - аккорды и текст, таба, бас-таба, видео

Печатать
Просмотров: 401
Sweet Tooth
Marilyn Manson
		   ************************************************************
this is my first post so don't yell at me if i screw up.

for the intro part with all that funky noise in it, just play
the 3rd fret on the low e string and bend the shit out of it.

bass intro  (repeat twice)
riff1
g---------------------------------------------g
d---------------------------------------------d
a---------------------------------------------a
e----0-----7---0----6---0--5--5----3---2-3-2--e
     ^     ^^^^^^^^^^^^^^  ^^^^^^^^^^^^^^^^^
   whole     all 1/2 notes       1/4 notes
riff2
g---------------------------------------------g
d---------------------------------------------d
a---------------------------------------------a
e----0--0---7---0----6---0--5--5----3--2------e
     ^^^^^^^^^^^^^^^^^  ^^^^^^^^^^^^^^^^^
        all 1/2 notes       1/4 notes

on the second time of doing the intro with the bass do this with the guitar
riff1
a---------------------------------------------a
e----0-----7---0----6---0--5--5----3----------e
riff2
a---------------------------------------------a
e----0--0---7---0----6---0--5--5----3--2------e

then for the intro verse do this on guitar and bass

g---------------------------------------------g
d---------------------------------------------d
a---------------------------------------------a
e--2222-1111-2222-1111-2222-1111-2222-1111----e
    ^^^^^^^^^^^^^^^^^^^^^^^^^^^^^^^^^^
    All quarter notes

do this for a while then on the last time go

g---------------------------------------------g
d---------------------------------------------d
a---------------------------------------------a
e--2222-1111-2222-1111-2222-1111-2222-1-------e
                                      ^
                                      half note

then do this for all other verse parts on guitar and bass

g-------------------------------------------------------------g
d-------------------------------------------------------------d
a-------------------------------------------------------------a
e-2222-1111-0000-1111-2222-1111-0000-1111-2222-1111-0000-1111-e
     ^^^^^^^^^^^^^^^^^^^^^^^^^^^^^^^^^^^^^^^^^^^^^^^
     still all quarter notes

  then on the last verse before the chorus go:

g--------------------------------------------------------------------------g
d--------------------------------------------------------------------------d
a--------------------------------------------------------------------------a
e-2222-1111-0000-1111-2222-1111-0000-1111-2222-1111-0000-1111--2--1--0--1--e
                                                               ^^^^^^^^^^
                                                               half notes

then do the chorus. I think on the second verse the guitar is different but
you'll have to figure that out for yourself. i think the last 4 notes of the
verse are power chords for the guitar but, i only play bass so i'm not sure.
Tell me if i tabbed it right at aol.com.twiggey
twiggey@aol.com

Here is the basic guitar tab for Sweet Tooth...it's one of my faves...  As
you can see Twigg tabbed the bass...but i didn't see any geetar, so here ya
go.  if yer on the mailing list you already have this.

'Sweet Tooth'

B|--------------------------|--------------------------|
G|--------------------------|--------------------------|
D|-2-2--4---2-5---2-4-4--3--|-2-2--4---2-5---2-4-4--5--|
A|-2-2--2---2-5---2-2-2--1--|-2-2--2---2-5---2-2-2--3--|
E|-0-0------0-3---0---------|-0-0------0-3---0---------|

Ooooo-yeah, tabbed by 'Shleestak'

ddd127@psu.edu
shleestack@aol.com  --don't forget the 'c'

any corrections you feel more dan free to mail dem to me...so i can curse you.

"i will break you inside, you are MINE"  -= MM =-

-shlee     
Добавлено: 15.07.2013
Другие материалы по этой песне:

Страница создана 25.02.2012
http://primanota.ru/marilyn-manson/sweet-tooth-chords.htm
Привет, Гость.
Предлагаем пройти революционный курс по гитаре.
Подарок от PrimaNota.Ru, забирай!