PrimaNota.ru - самый крупный в мире бесплатный архив песенных текстов, аккордов, табулатур и нот


Marilyn Manson - No Reflection - текст песни, таба, видео

Регистрация Запомнить меня
Войти через:  Facebook Google Twitter Vk Yandex Mail.ru

Marilyn Manson - No Reflection - текст песни, таба, видео

Печатать
Просмотров: 1420
Авторы: Chris Vrenna
Авторы музыки: Twiggy Ramirez, Marilyn Manson
Авторы текста: Marilyn Manson
Tuning: Drop D -> DADGBE

( ) - soft touch in the note
+   - harmonic (regular, not pinch)
pm  - palm mute
x   - dead note
\   - slide down
/   - slide up
h   - hammer on

*pick on E, B and G strings to make that sound on the beginning, then:

pm                     pm       

E--------------------------------------------|
B--------------------------------------------|
G--------------------------------------------|
D--------------------------------------------|
A--------------------------------------------|
D-2-2-2---2-2---2-2--2-2---------------------| 

pm                                                         pm                                 

E--------------------------------------------------------------|
B--------------------------------------------------------------|
G--------------------------------------------------------------|
D--------------------------------------------------------------|
A--------------------------------------------------------------|
D--2-2---2-2---2-2--2-2---2-2-2-5-5-5-5-5-5-5-5-4-4-4-4-4-4-4-4| 

*drums comes in, TA TA TA*

pm                                                                  pm   

E-------------------------------------------------------------------------------------------|
B-------------------------------------------------------------------------------------------|
G-------------------------------------------------------------------------------------------|
D--2-2-2--2-2--2-2--2-2----------2-2---2-2---2-2--2-2--2-2-2-5-5-5-5-5-5-5-5-4-4-4-4-4-4-4-4|
A--2-2-2--2-2--2-2--2-2----------2-2---2-2---2-2--2-2--2-2-2-5-5-5-5-5-5-5-5-4-4-4-4-4-4-4-4|
D--2-2-2--2-2--2-2--2-2----------2-2---2-2---2-2--2-2--2-2-2-5-5-5-5-5-5-5-5-4-4-4-4-4-4-4-4| 

Keep repeating this /\ or the first one (this one sounds more heavy, but the first 
one with only one note seems to be the right one, or the guitar is too low on the 
mix. So just play whatever sounds good to you, it's the same note).


"This will hurt you worse than me [...]''

E-------------------------------------------------------------------------------|
B-------------------------------------------------------------------------------|
G-------------------------------------------------------------------------------|
D--9-9-9-9-9-9-9-9--------7-7-7-7-7-7-7-7--4-4-4--5-5-5-5-5---9-----------------|
A--9-9-9-9-9-9-9-9--------7-7-7-7-7-7-7-7--4-4-4--5-5-5-5-5-/-9--then repeat----|
D--9-9-9-9-9-9-9-9-[x2]---7-7-7-7-7-7-7-7--4-4-4--5-5-5-5-5---9-----------------|  

Chorus (I don't know which me that I love [...])

E-------------------------------------------------------|
B-------------------------------------------------------|
G-------------------------------------------------------|
D--2-2-2-2-2-2-2-2-------5-5-5-5-5-5-5-5-4-4-4-4-4-4-4-4|
A--2-2-2-2-2-2-2-2-------5-5-5-5-5-5-5-5-4-4-4-4-4-4-4-4|
D--2-2-2-2-2-2-2-2 [x2]--5-5-5-5-5-5-5-5-4-4-4-4-4-4-4-4| 

There's this part where Manson says ''you, you don't, even, want to know what I'm 
gonna do to you'' and there's a guitar playing high notes, here they are:

B--5-5-5-5-5-5-5-5-5-5-5-5-5-5-5-5-8-8-8-8-8-8-8-8-7-7-7-8-8-8-8-8

Sorry, I can't figure it out the synth at the end, too distorted, probably it's a 
single note being whammed over, my guitar doesn't have a whammy bar. Sorry again. :(

The song is basically the same notes repeated over and over untill its end. :)

lucasalves94@gmail.com
Добавлено: 18.09.2013
Другие материалы по этой песне:

Страница создана 25.06.2013
http://primanota.ru/marilyn-manson/no-reflection-chords.htm
Привет, Гость.
Предлагаем пройти революционный курс по гитаре.
Подарок от PrimaNota.Ru, забирай!