PrimaNota.ru - самый крупный в мире бесплатный архив песенных текстов, аккордов, табулатур и нот


Marilyn Manson - Youre So Vain - текст песни, таба, видео

Регистрация Запомнить меня
Войти через:  Facebook Google Twitter Vk Yandex Mail.ru

Marilyn Manson - Youre So Vain - текст песни, таба, видео

Печатать
Просмотров: 532
-----------------------------------------------------------------------------
                       Marilyn Manson - You're So Vain
-----------------------------------------------------------------------------

Tabbed by: Metalrock4ever

Tuning: CGCFAD

Intro:
D|----------------|
A|----------------|
F|----------------|
C|----00----00----|  x4
G|-22----22----22-|
C|----------------|

Solo Part:
D|---------|
A|---------|
F|-7-7-7-7-|
C|-9-9-9-9-|
G|---------|
C|---------|

Verse:
D|-------------------------------------|
A|-------------------------------------|
F|-------------------------------------|
C|-9x9x9x9x-9x9x9x9x-5x5x5x7x-9x9x9x9x-|  x2
G|-9x9x9x9x-9x9x9x9x-5x5x5x7x-9x9x9x9x-|
C|-9x9x9x9x-9x9x9x9x-5x5x5x7x-9x9x9x9x-|

D|---------------------------------------|
A|---------------------------------------|
F|---------------------------------------|
C|-55-77-44-99-5555-0~-5x5x5x5x-5x5x5x5x-|
G|-55-77-44-99-5555----5x5x5x5x-5x5x5x5x-|
C|-55-77-44-99-5555----5x5x5x5x-5x5x5x5x-|


Chorus:
D|-----------------------------------------|
A|-----------------------------------------|
F|----------------7777---------------------|
C|-9999-9999-5555-7777-9999-5555-7777-7777-|
G|-9999-9999-5555-5555-9999-5555-7777-7777-|
C|-9999-9999-5555------9999-5555-7777-7777-|


Post-Chorus:
(Not sure about the solo part I)
D|-------------------------------------|
A|-------------------------------------|
F|-------------------------------------|
C|-9x9x9x9x-9x9x9x9x-9x9x9x9x-9x9x9x9x-|
G|-9x9x9x9x-9x9x9x9x-9x9x9x9x-9x9x9x9x-|
C|-9x9x9x9x-9x9x9x9x-9x9x9x9x-9x9x9x9x-|

Solo Part I:
D|---------|
A|---------|
F|-7-7-7-7-|
C|-9-9-9-9-|
G|---------|
C|---------|

Solo Part II:
D|-----|
A|-9b~-|
F|-----|
C|-----|
G|-----|
C|-----|


Verse 2:
D|-------------------------------------|
A|-------------------------------------|
F|-------------------------------------|
C|-9x9x9x9x-9x9x9x9x-5x5x5x7x-9x9x9x9x-|  x2
G|-9x9x9x9x-9x9x9x9x-5x5x5x7x-9x9x9x9x-|
C|-9x9x9x9x-9x9x9x9x-5x5x5x7x-9x9x9x9x-|

Solo Part:
(Not sure about this. Listen to the music for entry)
|----------------|           |----------------|
|----------------|           |----------------|
|--------77-77-7-|           |--------77-77-7-|
|-7-77-7-77-77-7-|  or it's  |-7-77-7-99-99-9-|
|----------------|           |----------------|
|----------------|           |----------------|

D|---------------------------------------|
A|---------------------------------------|
F|------------------------------7---7----|
C|-55-77-44-99-5555-0~-5x5x5x5x-5x5x5x5x-|
G|-55-77-44-99-5555----5x5x5x5x-5x5x5x5x-|
C|-55-77-44-99-5555----5x5x5x5x-5x5x5x5x-|


Chorus 2:
D|-----------------------------------------|
A|-----------------------------------------|
F|----------------7777---------------------|
C|-9999-9999-5555-7777-9999-5555-7777-7777-|
G|-9999-9999-5555-5555-9999-5555-7777-7777-|
C|-9999-9999-5555------9999-5555-7777-7777-|


Bridge:
D|-------------------------------------|
A|-------------------------------------|
F|-------------------------------------|
C|-9x9x9x9x-9x9x9x9x-5x5x5x7x-9x9x9x9x-|  x2
G|-9x9x9x9x-9x9x9x9x-5x5x5x7x-9x9x9x9x-|
C|-9x9x9x9x-9x9x9x9x-5x5x5x7x-9x9x9x9x-|

D|---------------------------------------|
A|---------------------------------------|
F|---------------------------------------|
C|-55-77-44-99-5555-0~-5x5x5x5x-5x5x5x5x-|
G|-55-77-44-99-5555----5x5x5x5x-5x5x5x5x-|
C|-55-77-44-99-5555----5x5x5x5x-5x5x5x5x-|

Solo Part:
D|---------------------------------------14~-----|
A|-3-0-3/7~-5-3-0~--10/12~-5-3-0~-10/12~-----10~-|
F|-----------------------------------------------|
C|-----------------------------------------------|
G|-----------------------------------------------|
C|-----------------------------------------------|

Pre-Verse:
D|----------------|
A|----------------|
F|----------------|
C|----00----00----|  x4
G|-22----22----22-|
C|----------------|


Verse 3:
D|-------------------------------------|
A|-------------------------------------|
F|-------------------------------------|
C|-9x9x9x9x-9x9x9x9x-5x5x5x7x-9x9x9x9x-|  x2
G|-9x9x9x9x-9x9x9x9x-5x5x5x7x-9x9x9x9x-|
C|-9x9x9x9x-9x9x9x9x-5x5x5x7x-9x9x9x9x-|

Solo Part:
D|-------------------|
A|-10/12-12\10-10/12-|
F|-------------------|
C|-------------------|
G|-------------------|
C|-------------------|

D|---------------------------------------|
A|---------------------------------------|
F|------------------------------7---7----|
C|-55-77-44-99-5555-0~-5x5x5x5x-5x5x5x5x-|
G|-55-77-44-99-5555----5x5x5x5x-5x5x5x5x-|
C|-55-77-44-99-5555----5x5x5x5x-5x5x5x5x-|


Final Chorus:
D|-----------------------------------------|
A|-----------------------------------------|
F|----------------7777---------------------|
C|-9999-9999-5555-7777-9999-5555-7777-7777-|  x2
G|-9999-9999-5555-5555-9999-5555-7777-7777-|
C|-9999-9999-5555------9999-5555-7777-7777-|

Solo Part:
D|-7~---------14~-7~-7h5h7-9~-10~-12~-14~-19~-|
A|----7-5-3-5---------------------------------|
F|--------------------------------------------|
C|--------------------------------------------|
G|--------------------------------------------|
C|--------------------------------------------|

D|-14-17-19-17-14-12-10-7~-5~-12/14~-7b~-|
A|---------------------------------------|
F|---------------------------------------|
C|---------------------------------------|
G|---------------------------------------|
C|---------------------------------------|


Outro:
|-------------------------------------|
|-------------------------------------|
|-------------------------------------|
|-9x9x9x9x-9x9x9x9x-9x9x9x9x-9x9x9x9x-|
|-9x9x9x9x-9x9x9x9x-9x9x9x9x-9x9x9x9x-|
|-9x9x9x9x-9x9x9x9x-9x9x9x9x-9x9x9x9x-|


************************************

| /   slide up
| \   slide down
| h   hammer-on
| ~   vibrato
| +   harmonic
| x   Mute note
| b   Bend

************************************

If you have any comments/corrections, please say in either the comments box or leave me 
a message. Good luck and enjoy!
Добавлено: 30.11.2013
Другие материалы по этой песне:
  • Аккорды и текст

Страница создана 20.08.2013
http://primanota.ru/marilyn-manson/youre-so-vain-chords.htm
Привет, Гость.
Предлагаем пройти революционный курс по гитаре.
Подарок от PrimaNota.Ru, забирай!