PrimaNota.ru - самый крупный в мире бесплатный архив песенных текстов, аккордов, табулатур и нот


Marilyn Manson - Mobscene - аккорды и текст, таба, бас-таба, драм-таба, видео

Регистрация Запомнить меня
Войти через:  Facebook Google Twitter Vk Yandex Mail.ru

Marilyn Manson - Mobscene - аккорды и текст, таба, бас-таба, драм-таба, видео

Печатать
Просмотров: 796
Авторы музыки: John 5, Marilyn Manson
Авторы текста: Marilyn Manson
Mobscene
Marilyn Manson
		   Marilyn Manson- mOBSCSNE
Tabbed By Adam
Tune 6th string down to D

Intro                                *-* = Palm Mute

E---------------------------------
B---------------------------------
G---------------------------------
D---2--0-5-0-7-5-5-2-*0-0*-0-*0*--
A---2--0-5-0-7-5-5-2-*0-0*-0-*0*--           C this Until Verse Comes in
D---2--0-5-0-7-5-5-2-*0-0*-0-*0*--

Verse

E----------------
B----------------      C this Througout Verse
G----------------
D---*00000*-2-3-0
A---*00000*-2-3-0
D---*00000*-2-3-0

Chorus

E---------------------       C this Througout Chorus
B---------------------
G---------------------
D---2--0-5-0-7-5-5-2-0
A---2--0-5-0-7-5-5-2-0
D---2--0-5-0-7-5-5-2-0

Link (....you want comitment)

E-------------------------------------
B-------------------------------------
G---2-2-2-2-2-2-2-2-2--5-5-5-5-5-5-5-5
D---2-2-2-2-2-2-2-2-2--5-5-5-5-5-5-5-5
A---0-0-0-0-0-0-0-0-0--3-3-3-3-3-3-3-3
D-------------------------------------

E-------------------------------------
B-------------------------------------
G---2-2-2-2-2-2-2-2-2--5-5-5-5-5-5-5-5
D---2-2-2-2-2-2-2-2-2--5-5-5-5-5-5-5-5
A---0-0-0-0-0-0-0-0-0--3-3-3-3-3-3-3-3
D-------------------------------------

E-----------------------------------------------------------------------
B-----------------------------------------------------------------------
G---2-2-2-2-2-2-2-2-2--5-5-5-5-5-5-5-5----------------------------------
D---2-2-2-2-2-2-2-2-2--5-5-5-5-5-5-5-5---8-8-8-8-8-8-8-8-8-8-8-8-8-8-8-8
A---0-0-0-0-0-0-0-0-0--3-3-3-3-3-3-3-3---8-8-8-8-8-8-8-8-8-8-8-8-8-8-8-8
D----------------------------------------8-8-8-8-8-8-8-8-8-8-8-8-8-8-8-8

Pre verse

E----------------
B----------------
G----------------
D---*00000*-2-3-0       C this til Verse comes in
A---*00000*-2-3-0
D---*00000*-2-3-0

Pattern:

Intro,
verse,
chorus,
link,
pre verse,
verse,
chorus,
link,
pre verse,
verse,
link,
Intro.

Note: Intro is also Outro.     
Добавлено: 02.07.2013
Другие материалы по этой песне:

Страница создана 04.03.2012
http://primanota.ru/marilyn-manson/mobscene-chords.htm
Привет, Гость.
Предлагаем пройти революционный курс по гитаре.
Подарок от PrimaNota.Ru, забирай!