PrimaNota.ru - самый крупный в мире бесплатный архив песенных текстов, аккордов, табулатур и нот


Marilyn Manson - Negative 3 - текст песни, таба, бас-таба, видео

Регистрация Запомнить меня
Войти через:  Facebook Google Twitter Vk Yandex Mail.ru

Marilyn Manson - Negative 3 - текст песни, таба, бас-таба, видео

Печатать
Просмотров: 282
Song: Negative 3
Artist: Marilyn Manson & The Spooky Kids
Album: 
As tabbed by Joe Muggah

Tuned down 1 step, but tuning is off and the guitar is a 
bit higher than it should be.

Verse
d------------------------------------------------------------
A------------------------------------------------------------
F------------------------------------------------------------
C----2---2----2----2---2----2----2---2----2-0----0---0---0---
G----------------3---3----3----2---2----2------2---2---2-----
D--0---0----0------------------------------------------------

(continued)
d------------------------------------------------------------
A------------------------------------------------------------
F------------------------------------------------0---0---0-0-
C----2---2---2-2---2---2----2----2---2----2-0----------------
G----------------3---3----3----2---2----2------2---2---2-----
D--0---0---0-------------------------------------------------

Pre-Chorus
d------------------------------------------------------------
A------------------------------------------------------------
F--9-9--9---x-x-x--9-9--9---x-x-x--9-9----x-x----------------
C--9-9--9---x-x-x--9-9--9---x-x-x--9-9----x-x--9-------------
G--7-7--7---x-x-x--7-7--7---x-x-x--7-7----x-x--9-------------
D------------------8-8--8----------7-7---------7--8-7--------

(continued)
d------------------------------------------------------------
A------------------------------------------------------------
F--9-9--9---x-x-x--9-9--9---x-x-x--9-9----x-x----------------
C--9-9--9---x-x-x--9-9--9---x-x-x--9-9----x-x--9-------------
G--7-7--7---x-x-x--7-7--7---x-x-x--7-7----x-x--9-------------
D------------------8-8--8----------7-7---------7-------------

Riff 1
d------------------------------------------------------------
A------------------------------------------------------------
F---------------------------------------9--------------------
C---------------------------------------9--------------------
G--7---/10------------9---10---9--------7--------------------
D------------8---10----------------10------------------------

Chorus                                              end on
d------------------------------------------------|-----------
A------------------------------------------------|-----------
F--9-9-9-9-9--9-9-9-9-9--------------------------|---9-------
C--9-9-9-9-9--9-9-9-9-9--9-9-9-9-9--5--5--5--5---|---9-------
G--7-7-7-7-7--7-7-7-7-7--9-9-9-9-9--5--5--5--5---|---7-------
D-------------8-8-8-8-8--7-7-7-7-7--3--3--3--3---|-----------

Riff 2
d------------------------------------------------------------
A------------------------------------------------------------
F--9---12-------------11---12---11---14---9------------------
C--x----x---10---12----x----x----x----x---9------------------
G--7---10----x----x----9---10----9---12---7------------------
D------------8---10------------------------------------------

Bridge                                       end on
d--------3-2-3-2-0-----------3-2-3-2-0--------|--------------
A---------------------------------------------|--------------
F------0------------------0-------------------|--------------
C----2------------------2---------------------|-10--10-10-10-
G--3------------------3-----------------------|-10--10-10-10-
D---------------------------------------------|--8---8--8--8-


Verse
Verse, Pre-Chorus
Verse
Verse, Riff 2
Verse
Verse, Pre-Chorus 
Verse, Chorus
Verse
Verse, Riff 2
Verse
Verse, Pre-Chorus
Verse, Chorus
Bridge
Verse, Chorus

===========

          Song: Negative 3
          Artist: Marilyn Manson
          Written by: Daisy, Gein
          Lyrics by: Marilyn Manson
          Album: Marilyn Manson and the spook kids "After school special"
          Tabed by: Per "Pogo" Stenberg
          fanta98@hotmail.com
          
          This one and Learning to swim are the best demo songs!
          Hope this tabs helps you! By the way... I tabing requests, so
          mail me... (Not only demo songs)
          
          
          Intro
          
          ------------------------------------------------
          ------------------------------------------------
          ------------------------------------------------
          ---2---2---2---2---2---2---2---2-----0---0---0--
          -------------3---3---3---2---2---p02---2---2----
          -0---0---0--------------------------------------
          
          
          -----------------------------------------------------
          -----------------------------------------------------
          -----------------------------------------------2---2-
          ---2---2---2---2---2---2---2---2---2---5---5---------
          -------------3---3---3---2---2---2---2---2---2---2---
          -0---0---0-------------------------------------------
          
          
          Main riff  (Let the notes ring)
          
          --------------------------
          --------------------------
          --------------------------
          -7--3--2-3-5---7--3--2-3-5
          -5--1--0-1-3---5--1--0-1-3
          --------------------------
          
          
          Verse
          
          
          ------------------------------------------------
          ------------------------------------------------
          ------------------------------------------------
          ---2---2---2---2---2---2---2---2-----0---0---0--
          -------------3---3---3---2---2---p02---2---2----
          -0---0---0--------------------------------------
          
          
          -----------------------------------------------------
          -----------------------------------------------------
          -----------------------------------------------2---2-
          ---2---2---2---2---2---2---2---2---2---5---5---------
          -------------3---3---3---2---2---2---2---2---2---2---
          -0---0---0-------------------------------------------
          
          
          Bridge
          
          ------------------
          ------------------
          ---3-----2-3-2---7
          -5---1-3-------3-5
          ------------------
          ------------------
          
          
          Verse
          
          ------------------------------------------------
          ------------------------------------------------
          ------------------------------------------------
          ---2---2---2---2---2---2---2---2-----0---0---0--
          -------------3---3---3---2---2---p02---2---2----
          -0---0---0--------------------------------------
          
          
          -----------------------------------------------------
          -----------------------------------------------------
          -----------------------------------------------2---2-
          ---2---2---2---2---2---2---2---2---2---5---5---------
          -------------3---3---3---2---2---2---2---2---2---2---
          -0---0---0-------------------------------------------
          
          
          Main riff
          
          -------------
          -------------
          -------------
          -7--3--2--3-5
          -5--1--0--1-3
          -------------
          
          
          Chours
          
          ---------------------
          ---------------------
          ---------------------
          -77773333222233335555
          -55551111000011113333
          ---------------------
          
          
          Verse
          
          ------------------------------------------------
          ------------------------------------------------
          ------------------------------------------------
          ---2---2---2---2---2---2---2---2-----0---0---0--
          -------------3---3---3---2---2---p02---2---2----
          -0---0---0--------------------------------------
          
          
          -----------------------------------------------------
          -----------------------------------------------------
          -----------------------------------------------2---2-
          ---2---2---2---2---2---2---2---2---2---5---5---------
          -------------3---3---3---2---2---2---2---2---2---2---
          -0---0---0-------------------------------------------
          
          
          Bridge
          
          ------------------
          ------------------
          ---3-----2-3-2---7
          -5---1-3-------3-5
          ------------------
          ------------------
          
          Main riff
          
          -------------
          -------------
          -------------
          -7--3--2--3-5
          -5--1--0--1-3
          -------------
          
          
          Chours
          
          ---------------------
          ---------------------
          ---------------------
          -77773333222233335555
          -55551111000011113333
          ---------------------
          
          
          Break
          Have you index finger on the 1fret 
          and the pinky on the 5 fret, your fuck finger on the
          3 fret on the G string and the other finger on 3fret on 
          the B string 
          
          -------1---1----
          -----3---5---5-3
          ---3------------
          ----------------
          -0--------------
          ----------------
          
          
          Break (bass)
          
          ---------
          ---------
          ---------
          ---9-7---
          -7-----7-
          ---------
          
          
          Chours
          
          ---------------------
          ---------------------
          ---------------------
          -77773333222233335555
          -55551111000011113333
          ---------------------
          
          Wow! Thats a good song! It took a while (40 Min) but I did it!
          The break took about 50% of the time!
          Hope you like my tab.
          
          Other tabs I have done...
          
          Guitar:
          Astonashing panorama of the end times*
          Count to 6 and die
          Choclit factory (Lots of errors in the tab)*
          Coma Black
          Dune buggy
          Highway to hell
          Irresponsible hate anthem
          Lunchbox live
          Negative 3
          Rock n' Roll nigger live solo
          Thingmaker
          Wormboy
          Wrapped in plastic
          
          
          Keyboard:
          Astonashing panorama of the end times
          Count to 6 and die
          Crytorchid
          Man that you fear
          Shitty chicken gang bang
          Suicide is painless
          Last day on earth
          Rock is dead
          
          Bass:
          Strange same dogma
          
          
          *= old tabs that sucks.
Добавлено: 27.05.2012
Другие материалы по этой песне:

Страница создана 01.03.2012
http://primanota.ru/marilyn-manson/negative-3-chords.htm
Привет, Гость.
Предлагаем пройти революционный курс по гитаре.
Подарок от PrimaNota.Ru, забирай!