PrimaNota.ru - самый крупный в мире бесплатный архив песенных текстов, аккордов, табулатур и нот


Marilyn Manson - If I Was Your Vampire - текст песни, таба, видео

Регистрация Запомнить меня
Войти через:  Facebook Google Twitter Vk Yandex Mail.ru

Marilyn Manson - If I Was Your Vampire - текст песни, таба, видео

Печатать
Просмотров: 1231
Уроки эстрадного вокала в Санкт-Петербурге
Авторы: Marilyn Manson, Tim Sköld

From the New album Eat Me Drink Me

e|--------------------------------------------------|
B|--------------------------------------------------|
G|--------------------------------------------------|
D|--------------------------------------------------|
A|---2---3----2---3------2---3--2--0--5--3--2-------|
E|-0---0----0---0------0---0---0--0--0--0--0--------|    4 x


e|--------------------------------------------------|
B|--------------------------------------------------|
G|---4---5----4---5------4---5-4-2-7-5-4------------|
D|-2---2----2---2------2---2------------------------|
A|--------------------------------------------------|
E|--------------------------------------------------|  2 x


e|--------------------------------------------------|
B|--------------------------------------------------|
G|--------------------------------------------------|
D|--------------------------------------------------|
A|---2---3----2---3------2---3--2--0--5--3--2-------|
E|-0---0----0---0------0---0---0--0--0--0--0--------|    3 x


e|--------------------------------------------------|
B|--------------------------------------------------|
G|---4---5----4---5------4---5-4-2-7-5-4------------|
D|-2---2----2---2------2---2------------------------|
A|--------------------------------------------------|
E|--------------------------------------------------|  2 x 


e|-10-10-10-10-10-----------------------------------|
B|-11-11-11-11-11-13-13-13-13-13-11-11-11-11-11-----|
G|----------------14-14-14-14-14-12-12-12-12-12-----|
D|--------------------------------------------------|
A|--------------------------------------------------|
E|--------------------------------------------------|  2 x  

e|--------------------------------------------------|
B|--------------------------------------------------|
G|--------------------------------------------------|
D|--------------------------------------------------|
A|---2---3----2---3------2---3--2--0--5--3--2-------|
E|-0---0----0---0------0---0---0--0--0--0--0--------|  1 x

e|--------------------------------------------------|
B|--------------------------------------------------|
G|--------------------------------------------------|
D|--------------------------------------------------|
A|---2---3----2---3---2---3--2--0--5--3--2----2---2-|
E|-0---0----0---0---0---0---0--0--0--0--0---0---0---|  1 x

e|--------------------------------------------------|
B|--------------------------------------------------|
G|---4---5----4---5------4---5-4-2-7-5-4------------|
D|-2---2----2---2------2---2------------------------|
A|--------------------------------------------------|
E|--------------------------------------------------|  4 x

e|--------------------------------------------------|
B|--------------------------------------------------|
G|-4444444-4/7-66666666-----------------------------|
D|-2222222-2/5-44444444-----------------------------| Repeat Till End
A|--------------------------------------------------| 
E|--------------------------------------------------|  


Добавлено: 08.07.2012
Другие материалы по этой песне:

Страница создана 27.02.2012
http://primanota.ru/marilyn-manson/if-i-was-your-vampire-chords.htm
Привет, Гость.
Предлагаем пройти революционный курс по гитаре.
Подарок от PrimaNota.Ru, забирай!