PrimaNota.ru - самый крупный в мире бесплатный архив песенных текстов, аккордов, табулатур и нот


Marilyn Manson - Just A Car Crash Away - текст песни, таба, видео

Регистрация Запомнить меня
Войти через:  Facebook Google Twitter Vk Yandex Mail.ru

Marilyn Manson - Just A Car Crash Away - текст песни, таба, видео

Печатать
Просмотров: 626
Авторы: Marilyn Manson, Tim Sköld

-------------------------------------------------------------------------------
                        JUST A CAR CRASH AWAY - Marilyn Manson
-------------------------------------------------------------------------------
Tabbed by:a fake name
Email:

Tuning: standard
please enjoy my half assed effort

e|---------------------------------------------------------------------------|
B|--8-------------8-----------8---------------8------------------------------|
G|---------------------------------------------------------------------------|
D|--9-------------9-----------9---------------9------------------------------|
A|--7-------------6-----------5----------------------------------------------|
E|--------------------------------------------9------------------------------|

kinda strum lazily dont hit all the notes every time
and make sure the slide between the notes on the A string is pronounced

u can get the timing off the cd i'll just give you the chords

during the chorus just put i tiny bit of distortion on
any corrections leave a comment or sumthing



Добавлено: 28.02.2012
Другие материалы по этой песне:

Страница создана 25.02.2012
http://primanota.ru/marilyn-manson/just-a-car-crash-away-chords.htm
Привет, Гость.
Предлагаем пройти революционный курс по гитаре.
Подарок от PrimaNota.Ru, забирай!