PrimaNota.ru - самый крупный в мире бесплатный архив песенных текстов, аккордов, табулатур и нот


Marilyn Manson - Heart-shaped Glasses - текст песни, таба, видео

Регистрация Запомнить меня
Войти через:  Facebook Google Twitter Vk Yandex Mail.ru

Marilyn Manson - Heart-shaped Glasses - текст песни, таба, видео

Печатать
Просмотров: 141
-------------------------------------------------------------------------------
			     Heart Shaped Glasses - Marilyn Manson
-------------------------------------------------------------------------------
Tabbed by: Ben Longman
Email: klutch880@msn.com

Tuning: Standard

This is only some of the guitar parts, some parts of the song are done with synthesisers 
however you spell it hahah)
I will try and get as much tabbed as I can though whenver I can.
Thanks for reading this tab!!

Intro + Chorus
e|---------------------------------------|
B|--13-13---13-13--13-13-13--13-12-17-17-|
G|--14-14---14-14--14-12-12--12-12-16-16-|
D|---------------------------------------|
A|---------------------------------------|
E|---------------------------------------|
                or
e|---------------------------------12-12-|
B|--13-13---13-13--13-13-13--13-12-12-12-|
G|--14-14---14-14--14-12-12--12-12-------|
D|---------------------------------------|
A|---------------------------------------|
E|---------------------------------------|

At the end of the intro play this
e|-----------------------------------13-13-13--13-13-13--13-12-12-12-|
B|--10-10-10--10-10-10--10-9--9--9---13-13-13--13-13-13--13-13-13-13-|
G|--10-10-10--10-10-10--10-10-10-10----------------------------------|
D|-------------------------------------------------------------------|
A|-------------------------------------------------------------------|
E|-------------------------------------------------------------------|

Then there is just bass and synth for the verses
Then for the pre-chorus

e|------------------------------------------------------------------------------|
B|-13-13-15-17-18-17-15-13--13-10-10~---13-13-15-17-18-17-15-13-15-15-15-15-17~-|
G|------------------------------------------------------------------------------|
D|------------------------------------------------------------------------------|
A|------------------------------------------------------------------------------|
E|------------------------------------------------------------------------------|

Then there's an interlude that goes quite and does this four times

e|---------------------------------|
B|---------------------------------|
G|---------------------------------|
D|---------------------------------|
A|-0-0-0-2-3-0-0-3-5-2-2-5-7-5-3-2-|
E|---------------------------------|

Then the chorus again but on its own, just listen to the song and you'll recognise it all
Thanks again for reading this tab.
| /  slide up
| \  slide down
| h  hammer-on
| p  pull-off
| ~  vibrato
| +  harmonic
| x  Mute note
===============================================================================
Добавлено: 16.07.2013
Другие материалы по этой песне:
  • Аккорды и текст

Страница создана 16.07.2013
http://primanota.ru/marilyn-manson/heart-shaped-glasses-2-chords.htm
Привет, Гость.
Предлагаем пройти революционный курс по гитаре.
Подарок от PrimaNota.Ru, забирай!