PrimaNota.ru - самый крупный в мире бесплатный архив песенных текстов, аккордов, табулатур и нот


Mac Demarco - No Other Heart - аккорды и текст, таба, бас-таба, видео

Регистрация Запомнить меня
Войти через:  Facebook Google Twitter Vk Yandex Mail.ru

Mac Demarco - No Other Heart - аккорды и текст, таба, бас-таба, видео

Печатать
Просмотров: 157
No Other Heart
Mac Demarco
---------------------------------------------------------------------------
                       Mac DeMarco - No Other Heart
---------------------------------------------------------------------------
                        Tabbed by: gutturalguitar
                        Tuning: standard

                        No Other Heart (2015)
                        (Mac Demarco)

                        From: "Another One"
---------------------------------------------------------------------------
                        D6 (xx0202)
                        G6 (320000)
                        A#dim (x12320)
                        A#dim/C# (x42320)
                        D/C# (x40222)
                        Bm/D (xx0432)
---------------------------------------------------------------------------
guitar intro:
e|----------5-5-7-10-12b14----------------|
B|-7r5---5/7--------------10-10-10h12--10-|
G|----7-7----------------------------11---|
D|----------------------------------------|
A|----------------------------------------|
E|----------------------------------------|

guitar part one (in verses):
e|-10--10--10--10--10--10--10--10--12--12--12--12--12--12--12--12---|
B|---11--11--11--11--11--11--11--11--12--12--12--12--12--12--12--12-|
G|------------------------------------------------------------------|
D|------------------------------------------------------------------|
A|------------------------------------------------------------------|
E|------------------------------------------------------------------|

guitar part two (in chorus):
e|-10--10--10--10--10/14--14--15--15--15/17--17--17--19-14--14--14--17-12--12--12--12--14--14--14--14---|
B|---11--11--11--11-----15--15--15--15-----18--18--18-----14--14--14-----12--12--12--12--14--14--14--14-|
G|------------------------------------------------------------------------------------------------------|
D|------------------------------------------------------------------------------------------------------|
A|------------------------------------------------------------------------------------------------------|
E|------------------------------------------------------------------------------------------------------|
------------------------------------------------------------------------------

D6

is it true

A7

you've been feeling sort of low these days

D6

just don't have a place to go these days

A7

must be bringing you down

D6

if it's so

A7

then come on, give this lover boy a try

D6

i'll put the sparkle right back in your eyes

A7

what could you lose?

         G6       A#dim A#dim/C#  D  D/C#   Bm Bm/D

well for one, her heart         belongs to another

       Em    F#m A7     D

and no other heart will do

D6

is it wrong to think my love could really help you out

A7

it's simply just my stubborn heart no doubt, rambling away

D6

if it's not

A7

then come on, give this lover boy a try

D6

i'll put the sparkle right back in your eyes

A7

what could you lose

         G6       A#dim A#dim/C#  D  D/C#   Bm Bm/D

well for one, her heart         belongs to another

       Em    F#m A7     D

and no other heart will do

         G6       A#dim A#dim/C#  D  D/C#   Bm Bm/D

well for one, her heart         belongs to another

       Em    F#m A7     D

and no other heart will do
Добавлено: 09.11.2015
Другие материалы по этой песне:
  • Аккорды и текст

Страница создана 26.09.2015
http://primanota.ru/mac-demarco/no-other-heart-chords.htm
Привет, Гость.
Предлагаем пройти революционный курс по гитаре.
Подарок от PrimaNota.Ru, забирай!