PrimaNota.ru - самый крупный в мире бесплатный архив песенных текстов, аккордов, табулатур и нот


Lita Ford - Playin With Fire - текст песни, таба, видео

Регистрация Запомнить меня
Войти через:  Facebook Google Twitter Vk Yandex Mail.ru

Lita Ford - Playin With Fire - текст песни, таба, видео

Печатать
Просмотров: 212
---------------------------------------------------------------------
                            Playin' With Fire - Lita Ford
---------------------------------------------------------------------
Tabbed by: Spence (Alex Disciple)
Email: Pointgodspence@hotmail.com

Tuning: Standard

Keyboard Intro and then Lita plays over that:

                              Drums enter here
e|-------------------------------8b~---10b-10----------------------------|
B|-8b---8p5-8p5----5---------8b~--------------10-10b-10--8p5--8p5---5----|
G|---------------7---7~-------------------------------------------7---7--|
D|-----------------------------------------------------------------------|
A|-----------------------------------------------------------------------|
E|-----------------------------------------------------------------------|


e|---------------------10h12-10~-------------------------------------|
B|-10-10-10-10h12-10-------------------------------------------------|
G|-------------------------------------------------------------------|
D|-------------------------------------------------------------------|
A|-------------------------------------------------------------------|
E|-------------------------------------------------------------------|

Voice enters here

Verse: x2
  I   could  see    a  strange   fire   burning   up  in   you
  I   could    feel  sparks   fly    dangerous    and      true
e|-------------------------------------------------------------------|
B|-------------------------------------------------------------------|
G|------7-------7-------7-------7-------4-------4-------4-------4----|
D|------7-------7-------7-------7-------4-------4-------4-------4----|
A|--5-5-5-5-5-5-5-5-5-5-5-5-5-5-5-5-2-2-2-2-2-2-2-2-2-2-2-2-2-2-2-2--|
E|-------------------------------------------------------------------|

  The  first  time  I  looked   in  your     Eyes
  Straight through  this  heart of    Mine
e|-------------------------------------------------------------------|
B|-------------------------------------------------------------------|
G|------5-------5-------5-------5-5----------------------------------|
D|------5-------5-------5-------5-5-----5-------5-------5-------5----|
A|--3-3-3-3-3-3-3-3-3-3-3-3-3-3-3-3-----5-------5-------5-------5----|
E|----------------------------------3-3-3-3-3-3-3-3-3-3-3-3-3-3-3-3--|

Bridge:
I ain't  afraid to take the things I want and I don't believe the world is gonna change for me
So I take the love I need

e|--------------------------------------------------------------------------|
B|--------------------------------------------------------------------------|
G|--4-----9-------7----12-----4-------9----7-----10-12----------------------|
D|--4-----9-------7----12-----4-------9----7-----10-12----------------------|
A|--2-----7-------5----10-----2-------7----5------8-10----------------------|
E|--------------------------------------------------------------------------|

Chorus:
We were riding high, like flames against the sky. Innocent and wild, we were playing with fire
Too hot to touch, you can't call it love. But it's close enough to be playing with fire

e|-------------------------------------------------------------------|
B|-------------------------------------------------------------------|
G|--7----2-----4---------7----2----4---------------------------------|
D|--7----2-----4---5-----7----2----4------5--------------------------|
A|--5----0-----2---5-----5----0----2------5--------------------------|
E|-----------------3----------------------3--------------------------|

e|----------------------------------------------------------------------|
B|----------------------------------------------------------------------|
G|--7----2-----4---------7-----2-----4-------------12-------------------|
D|--7----2-----4----5----7-----2-----4-------------12-------------------|
A|--5----0-----2----5----5-----0-----2-------------10-------------------|
E|------------------3---------------------------------------------------|

Verse:

  I  could  see  a  dark   side   scratching  at   your   soul
  I  feel   your  lips     as   they   swallow  me   whole
e|-------------------------------------------------------------------|
B|-------------------------------------------------------------------|
G|------7-------7-------7-------7-------4-------4-------4-------4----|
D|------7-------7-------7-------7-------4-------4-------4-------4----|
A|--5-5-5-5-5-5-5-5-5-5-5-5-5-5-5-5-2-2-2-2-2-2-2-2-2-2-2-2-2-2-2-2--|
E|-------------------------------------------------------------------|

  The  risk  is   as    sweet  as the  Sin
  Strike  like   a   match  on  my  skin
e|-------------------------------------------------------------------|
B|-------------------------------------------------------------------|
G|------5-------5-------5-------5------------------------------------|
D|------5-------5-------5-------5-------5-------5-------5-------5----|
A|--3-3-3-3-3-3-3-3-3-3-3-3-3-3-3-3-----5-------5-------5-------5----|
E|----------------------------------3-3-3-3-3-3-3-3-3-3-3-3-3-3-3-3--|

Bridge:
And I'm tired of wasting all of my precious time. I love the way I feel when you're in my mind.
It ain't no crime.

e|-------------------------------------------------------------------|
B|-------------------------------------------------------------------|
G|--4-----9---7----12-----4----9----7-----10-12----------------------|
D|--4-----9---7----12-----4----9----7-----10-12----------------------|
A|--2-----7---5----10-----2----7----5------8-10----------------------|
E|-------------------------------------------------------------------|

Chorus:
We were riding high, like flames against the sky. Innocent and wild, we were playing with fire
Too hot to touch, you can't call it love. But it's close enough to be playing with fire

e|-------------------------------------------------------------------|
B|-------------------------------------------------------------------|
G|--7----2-----4---------7----2----4---------------------------------|
D|--7----2-----4---5-----7----2----4------5--------------------------|
A|--5----0-----2---5-----5----0----2------5--------------------------|
E|-----------------3----------------------3--------------------------|

e|----------------------------------------------------------------------|
B|----------------------------------------------------------------------|
G|--7----2-----4---------7-----2-----4-------------12-------------------|
D|--7----2-----4----5----7-----2-----4-------------12-------------------|
A|--5----0-----2----5----5-----0-----2-------------10-------------------|
E|------------------3---------------------------------------------------|

Interlude:
In the long nights, we were burning, caught in a wildfire, out of control.

e|-------------------------------------------------------------------|
B|-------------------------------------------------------------------|
G|--4-7--2----4-7--2----4-7--2----4-7--2-----7--2--4-----------------|
D|--4-7--2----4-7--2----4-7--2----4-7--2-----7--2--4--5--------------|
A|--2-5--0----2-5--0----2-5--0----2-5--0-----5--0--2--5--------------|
E|----------------------------------------------------3--------------|

Lita plays:               *this second part after vibrato is very quiet
e|-------------------------------------------------------------------|
B|--8b~--8p5-8p5-----5--------5--------------------------------------|
G|-----------------7---7~---7--7-------------------------------------|
D|-------------------------------------------------------------------|
A|-------------------------------------------------------------------|
E|-------------------------------------------------------------------|

Chorus:
We were riding high, like flames against the sky. Innocent and wild, we were playing with fire
Too hot to touch, you can't call it love. But it's close enough to be playing with fire

e|-------------------------------------------------------------------|
B|-------------------------------------------------------------------|
G|--7----2-----4---------7----2----4---------------------------------|
D|--7----2-----4---5-----7----2----4------5--------------------------|
A|--5----0-----2---5-----5----0----2------5--------------------------|
E|-----------------3----------------------3--------------------------|

e|-----------------------------------------------------------------------|
B|-----------------------------------------------------------------------|
G|--7----2-----4---------7-----2-----4-----------------------------------|
D|--7----2-----4----5----7-----2-----4----5------------------------------|
A|--5----0-----2----5----5-----0-----2----5------------------------------|
E|------------------3---------------------3------------------------------|

Over the outro chorus, after it repeats twice, Lita comes in with this:

e|---------8b---10b--10-------------------------------------------------|
B|--8b-------------------8--10b--10--8p5-8p5----5-----------------------|
G|-------------------------------------------7----5~----9p7-7-7~--------|
D|----------------------------------------------------------------------|
A|----------------------------------------------------------------------|
E|----------------------------------------------------------------------|

e|-------------------------------------------------10h12-10--------------|
B|-----------------8-10p8-10-10~-----8-10p8-10-10~----------10-10h-12-10-|
G|--9p7--7-7~---9-----------------9--------------------------------------|
D|-----------------------------------------------------------------------|
A|-----------------------------------------------------------------------|
E|-----------------------------------------------------------------------|

e|--------------------------------------------------------------------------|
B|--8p5-8p5---5-------8p5---5-8p5----5--------------------------------------|
G|----------7---7~--------7-------7------7~---------------------------------|
D|--------------------------------------------------------------------------|
A|--------------------------------------------------------------------------|
E|--------------------------------------------------------------------------|

The song fades out over this solo but if you are going to end it, finish on that last D 
the G string (7~) and then hit a D power chord to do the live ending.

ENJOY LITA!

| /  slide up
| \  slide down
| h  hammer-on
| p  pull-off
| ~  vibrato
| +  harmonic
| x  Mute note
| b  Bend Note
===============================================================================
Добавлено: 28.04.2012
Вам также может быть интересно:
Другие материалы по этой песне:
  • Аккорды и текст

Страница создана 19.04.2012
http://primanota.ru/lita-ford/playin-with-fire-chords.htm
Привет, Гость.
Предлагаем пройти революционный курс по гитаре.
Подарок от PrimaNota.Ru, забирай!