PrimaNota.ru - самый крупный в мире бесплатный архив песенных текстов, аккордов, табулатур и нот


Lita Ford - Gotta Let Go - текст песни, таба, видео

Регистрация Запомнить меня
Войти через:  Facebook Google Twitter Vk Yandex Mail.ru

Lita Ford - Gotta Let Go - текст песни, таба, видео

Печатать
Просмотров: 238
Авторы: Jeff Paris, Lita Ford

Date: Tue, 12 Mar 96 16:01:52 LOC
From: Judy Letostak 


Lita Ford - Gotta Let Go
letostak@ix.netcom.com   (Judy Letostak)
music.shop@lasernet.com


Intro play 8x (4x alone and 4x with drums)

---------------------------------------------------------------------------|
-----------------3--2--------------1--0------------------------------------|
-----------------2--2--------------0--0------------------------------------|
---------------------------------------------------------------------------|
--0--0--0--0--0--------0--0--0--0------------------------------------------|
---------------------------------------------------------------------------|


Verse

--------------------------------|-----------------------|-------------------|
--------------------------------|-----------------------|-------------------|
--------------------------------|-----------------------|-------------------|
--------------------------------|-----------------5--3--|-------------------|
---3-/--5--5---3-/-5-/-8-\-7----|--3-/-5-5--3--5--3--1--|--3-/-5--5---------|
---1-/--3--3---1-/-3-/-6-\-5----|--1-/-3-3--1--3--------|--1-/-3--3---------|


                  Bridge
                  You wanna be the main attraction...
---------------|------------------------------------------------------------|
---------------|------------------------------------------------------------|
---------------|------------------------------------------------------------|
---------------|---3------5-----3------7----5----5----5---------------------|
---3-/-5--5----|---1------3-----1------5----3----3----3------5--5--5--5--5--|
---1-/-3--3----|---------------------------------------------3--3--3--3--3--|


Chorus - play intro + at end   F  G
Verse
Chorus


------------------------|----------------------|
------------------------|----------------------|
------------------------|----7----7----5~------|
--10--9--7--5--7--5-----|----7----7----5~------|
---8--7--5--3--5--3-----|----------------------|
------------------------|----------------------|

Verse
Bridge
Chorus

----------------------------------------------------------------------------|
----------------------------------------------------------------------------|
----------------------------------------------------------------------------|
----------------------------------------------------------------------------|
--3----5----3---------------------------------------------------------------|
--1----3----1----3--3--3----5--5--5----7--7--7----8--8--8----10--10--10---12|


Interlude

----------------------------------------------------------------------------|
----------------------------------------------------------------------------|
----------------------------------------------------------------------------|
---3----5--5----3----5----------5----7--------------------------------------|
---1----3--3----1----3----1~----3----5--------------------------------------|
----------------------------------------------------------------------------|

Lead

---------------------------------7b(8)--rb7--8b(10)-|----------------------|
---------7b(8)--5--7b(8)-(8)--5---------------------|-tapping-part-I-------|
--7b(9)---------------------------------------------|-couldn't figure out--|
----------------------------------------------------|-----anyone??---------|
----------------------------------------------------|----------------------|
----------------------------------------------------|----------------------|


-----------10---13b(15)--13--13b(15)--10------------------------------------|
--13b(15)--------------------------------13--11-----------------------------|
-------------------------------------------------12~------------------------|
----------------------------------------------------------------------------|
----------------------------------------------------------------------------|
--------------------------------------------------------3b------------------|


Bridge
Chorus
End

----------------------15-----------15---------------------------------------|
---18b(20)---18b(20)------18b(20)-------18b~~~------------------------------|
----------------------------------------------------------------------------|
----------------------------------------------------------------------------|
----------------------------------------------------------------------------|
----------------------------------------------------------------------------|
=======================================================================
h = hammeron                    Judy Letostak
p = pulloff                     Internet letostak@ix.netcom.com
\ = slide                      Fidonet 1:202/1105
x = ghost note                  MetalNet 282:100/2
t = tap (right hand)            The Music Shop BBS (619)423-4970 24hrs
~ = vibrato                     * = picked harmonic
bf = bend full                  tr = trill
rb = release bend               p.s. = pick scrape
dive = dive with bar            b = bend / step written over note
Добавлено: 15.07.2012
Другие материалы по этой песне:
  • Аккорды и текст

Страница создана 19.03.2012
http://primanota.ru/lita-ford/gotta-let-go-chords.htm
Привет, Гость.
Предлагаем пройти революционный курс по гитаре.
Подарок от PrimaNota.Ru, забирай!