PrimaNota.ru - самый крупный в мире бесплатный архив песенных текстов, аккордов, табулатур и нот


Linkin Park - Devils Drop - аккорды и текст, таба, видео

Регистрация Запомнить меня
Войти через:  Facebook Google Twitter Vk Yandex Mail.ru

Linkin Park - Devils Drop - аккорды и текст, таба, видео

Печатать
Просмотров: 204
Devils Drop
Linkin Park
Devil's Drop - Chords

Tuning: Standard

Capo: None

Note: If you want to play this song using chords, I think 
that this is the best way to play it.  You can play either 
an "A" chord or a "Dsus2" chord.  Both sound fine.

   A    Dsus2
E|-0--|-0----|
B|-2--|-3----|
G|-2--|-2----|
D|-2--|-0----|
A|-0--|------|
E|----|------|

[Intro (x2)]
[This is how the chord switching goes throughout 
the song.  The pattern is basically strumming up 
and down.]

   D           Dsus4       D     A     D
E|-2--2--2--2--3--3--3--3--2--2--0--0--2--2--2--2--|
B|-3--3--3--3--3--3--3--3--3--3--2--2--3--3--3--3--|
G|-2--2--2--2--2--2--2--2--2--2--2--2--2--2--2--2--|
D|-0--0--0--0--0--0--0--0--0--0--2--2--0--0--0--0--|
A|-------------------------------0--0--------------|
E|-------------------------------------------------|

   D           Dsus4       D
E|-2--2--2--2--3--3--3--3--2--2--2--2--2--2--2--2--|
B|-3--3--3--3--3--3--3--3--3--3--3--3--3--3--3--3--|
G|-2--2--2--2--2--2--2--2--2--2--2--2--2--2--2--2--|
D|-0--0--0--0--0--0--0--0--0--0--0--0--0--0--0--0--|
A|-------------------------------------------------|
E|-------------------------------------------------|

   D           Dsus4       D     A     D
E|-2--2--2--2--3--3--3--3--2--2--0--0--2--2--2--2--|
B|-3--3--3--3--3--3--3--3--3--3--2--2--3--3--3--3--|
G|-2--2--2--2--2--2--2--2--2--2--2--2--2--2--2--2--|
D|-0--0--0--0--0--0--0--0--0--0--2--2--0--0--0--0--|
A|-------------------------------0--0--------------|
E|-------------------------------------------------|

   Bm          A           D
E|-2--2--2--2--0--0--0--0--2--2--2--2--2--2--2--2--|
B|-3--3--3--3--2--2--2--2--3--3--3--3--3--3--3--3--|
G|-4--4--4--4--2--2--2--2--2--2--2--2--2--2--2--2--|
D|-4--4--4--4--2--2--2--2--0--0--0--0--0--0--0--0--|
A|-2--2--2--2--0--0--0--0--------------------------|
E|-------------------------------------------------|

[Verse I]

D       Dsus4  D A     D
Landing in the devil's drop
D            Dsus4  D
I walked out in the snow
D              Dsus4  D   A    D
And climbed up to the mountain top
  Bm        A       D
A push from death below
D       Dsus4   D  A    D
Brother fell protecting us
D         Dsus4    D
Somewhere far from home
D       Dsus4   D    A    D
Lay him down to rest with us
     Bm        A         D
Like fields of earth and coal

[Chorus]

Dsus4    D
Ooooohh...
Dsus4    D
Whoooaa...

[Verse II]

D       Dsus4 D  A    D
Sailing out away from this
D           Dsus4   D
To ports of foreign shores
D      Dsus4  D   A  D
Let us not forget to miss
    Bm      A       D
The ones we can not hold

[Chorus]

Dsus4    D
Ooooohh...
Dsus4    D
Whoooaa...

[Verse I]

D       Dsus4  D A     D
Landing in the devil's drop
D            Dsus4  D
I walked out in the snow
D              Dsus4  D   A    D
And climbed up to the mountain top
  Bm        A       D
A push from death below
D       Dsus4   D  A    D
Brother fell protecting us
D         Dsus4    D
Somewhere far from home
D       Dsus4   D    A    D
Lay him down to rest with us
     Bm        A         D
Like fields of earth and coal

[End]

If there's any confusion, questions, or advice on how to 
improve it, please post a comment. Have fun playing, and 
please rate! -Rarrlow
Добавлено: 26.08.2015
Другие материалы по этой песне:

Страница создана 12.06.2015
http://primanota.ru/linkin-park/devils-drop-chords.htm
Привет, Гость.
Предлагаем пройти революционный курс по гитаре.
Подарок от PrimaNota.Ru, забирай!