PrimaNota.ru - самый крупный в мире бесплатный архив песенных текстов, аккордов, табулатур и нот


Linkin Park - Drawbar - таба, видео

Регистрация Запомнить меня
Войти через:  Facebook Google Twitter Vk Yandex Mail.ru

Linkin Park - Drawbar - таба, видео

Печатать
Просмотров: 205
Standard tuning for all guitars

Intro Part 1 - Guitar 1
|-------------------------------------------------------------------------------0-----------------|
|----------------------------------------------------------------------------0-----0--------------|
|----------------------------------------------------------------------0--------------------------|
|-------------------------------------------12*~-----------------9--------------------------------|
|-7~-------------------------------------------------------7-----------------------------7~-------|
|-------------------0~----------------12*---------------------------------------------------------|

|-------------------------------------------------------------------------------------------------|
|-------------------------------------------------------------------------------------------------|
|-------------------9~----------------------------------------------------------------------------|
|-------9-----------------------------------------------------------------------------------------|
|-7-----------7-----------------------------------------------------------------------------------|
|-------------------------------------------------------------------------------------------------|
|Guitar 1
|
|-------------------7~----------------------------------------------------------------------------|
|-------------------------------------------------------------------------------------------------|
|-------------9-----------------------------------------------------------------------------9-----|
|-------9----------------------------------(turn on pitch shifter)--------------------------------|
|-7-----------------------------------------------------------------------------------------------|
|-------------------------------------------------------------------------------------0-----------|
|Guitar 2 (Pitch shifter off for first 4 notes)

Intro Part 2 - Guitar 2
|-------------------------------------------------------------------------------------------------|
|-------------------------------------------------------8-----------------------------------------|
|-------9-----------------------9-----------------------------9-----------9-----------------9-----|
|-------------------------------------------9-----------------------9-----------9-----------------|
|-7-----------------7-----7-----------7-----------------------------------------------7-----------|
|-------------0-----------------------------------0-----------------------------------------------|

|-------------------------------------------------------------------------------------------------|
|-------------------------------8-----------------------------------------------------------------|
|-------9-----------9-----------------9-----------------9-----------------------------9-----------|
|-------------------------------------------9-----------------9-----------------9-----------9-----|
|-7-----------7-----------7-----------------------7-----------------7-----------------------------|
|-------------------------------------------------------------------------0-----------------------|

|-------------------------------------------------------------------------------------------------|
|-------------------8-----------------------------------------------------------8-----------------|
|-------9-----------------9-----------------------------------------9-----------------9-----------|
|-------------------------------9-----------9-----------------------------------------------9-----|
|-------------7-----------------------------------7-----------7-----------7-----------------------|
|-0-----------------------------------0-----------------0-----------------------------------------|

|-------------------------------7-----------------|
|-------------------------------------8-----------|
|-------------9-----------------------------9-----|
|-------9-----------9-----------------------------|
|-7-----------------------7-----------------------|
|-------------------------------------------------|

Intro Part 3 (0:46)
|-------------------------------------------------------------------------------7-----------------|
|-------------------------------8-----------------------------------------------------8-----------|
|-------------9-----------------------9-----------------------9-----------------------------9-----|
|-------9-----------9-----------------------9-----------9-----------9-----------------------------|
|-7-----------------------7-----------------------7-----------------------7-----------------------|
|-------------------------------------------------------------------------------------------------|
|Guitar 2
|
|-------------------------------------------------------------------------------------------------|
|-------------------------------------------------------------------------------------------------|
|-7~---/9~---------------------------------h12~--/14~--------------/16~--p14~--\12~--\9~---\7~----|
|-------------------------------------------------------------------------------------------------|
|-------------------------------------------------------------------------------------------------|
|-------------------------------------------------------------------------------------------------|
|Guitar 3

|-------------------------------------------------------------------------------7-----------------|
|-------------------------------8-----------------------------------------------------8-----------|
|-------------9-----------------------9-----------------------9-----------------------------9-----|
|-------9-----------9-----------------------9-----------9-----------9-----------------------------|
|-7-----------------------7-----------------------7-----------------------7-----------------------|
|-------------------------------------------------------------------------------------------------|
|Guitar 2
|
|-------------------------------------------------------------------------------------------------|
|-------------------------------------------------------------------------------------------------|
|-h9~--------------------------------------------/12~--------------------p11~--------\5~----------|
|-------------------------------------------------------------------------------------------------|
|-------------------------------------------------------------------------------------------------|
|-------------------------------------------------------------------------------------------------|
|Guitar 3

|-------------------------------------------------------------------------------7-----------------|
|-------------------------------8-----------------------------------------------------8-----------|
|-------------9-----------------------9-----------------------9-----------------------------9-----|
|-------9-----------9-----------------------9-----------9-----------9-----------------------------|
|-7-----------------------7-----------------------7-----------------------7-----------------------|
|-------------------------------------------------------------------------------------------------|
|Guitar 2
|
|-------------------------------------------------------------------------------------------------|
|-------------------------------------------------------------------------------------------------|
|-\4~--------------------------------------------(fade out)---------------------------------------|
|-------------------------------------------------------------------------------------------------|
|-------------------------------------------------------------------------------------------------|
|-------------------------------------------------------------------------------------------------|
|Guitar 3

Main Theme (1:08) - Guitar 2
|-------------------------------------------------------------------------------7-----------------|
|-------------------------------8-----------------------------------------------------8-----------|
|-------------9-----------------------9-----------------------9-----------------------------9-----|
|-------9-----------9-----------------------9-----------9-----------9-----------------------------|
|-7-----------------------7-----------------------7-----------------------7-----------------------|
|-------------------------------------------------------------------------------------------------|

|-------------------------------------------------------------------------------7-----------------|
|-------------------------------8-----------------------------------------------------8-----------|
|-------------9-----------------------9-----------------------9-----------------------------9-----|
|-------9-----------9-----------------------9-----------9-----------9-----------------------------|
|-7-----------------------7-----------------------7-----------------------7-----------------------|
|-------------------------------------------------------------------------------------------------|

|-------------------------------------------------------------------------------7-----------------|
|-------------------------------8-----------------------------------------------------8-----------|
|-------------9-----------------------9-----------------------9-----------------------------9-----|
|-------9-----------9-----------------------9-----------9-----------9-----------------------------|
|-7-----------------------7-----------------------7-----------------------7-----------------------|
|-------------------------------------------------------------------------------------------------|

|-------------------------------------------------------------------------------7-----------------|
|-------------------------------8-----------------------------------------------------8-----------|
|-------------9-----------------------9-----------------------9-----------------------------9-----|
|-------9-----------9-----------------------9-----------9-----------9-----------------------------|
|-7-----------------------7-----------------------7-----------------------7-----------------------|
|-------------------------------------------------------------------------------------------------|

|-------------------------------------------------------------------------------7-----------------|
|-------------------------------8-----------------------------------------------------8-----------|
|-------------9-----------------------9-----------------------9-----------------------------9-----|
|-------9-----------9-----------------------9-----------9-----------9-----------------------------|
|-7-----------------------7-----------------------7-----------------------7-----------------------|
|-------------------------------------------------------------------------------------------------|

|-------------------------------------------------------------------------------7-----------------|
|-------------------------------8-----------------------------------------------------8-----------|
|-------------9-----------------------9-----------------------9-----------------------------9-----|
|-------9-----------9-----------------------9-----------9-----------9-----------------------------|
|-7-----------------------7-----------------------7-----------------------7-----------------------|
|-------------------------------------------------------------------------------------------------|

Ending (1:50) - Guitar 2
|-------------------------------------------------------------------------------------------------|
|-------------------------------------------------------------------------------------------------|
|-------------------------------------------------------------------------------------------------|
|-------------------------------------------------------------------------------------------------|
|-7~----------(fade out)--------------------------------------------------------------------------|
|-------------------------------------------------------------------------------------------------|
Добавлено: 26.08.2015
Другие материалы по этой песне:
  • Аккорды и текст

Страница создана 26.08.2015
http://primanota.ru/linkin-park/drawbar-chords.htm
Привет, Гость.
Предлагаем пройти революционный курс по гитаре.
Подарок от PrimaNota.Ru, забирай!