PrimaNota.ru - самый крупный в мире бесплатный архив песенных текстов, аккордов, табулатур и нот


Linkin Park - What Ive Done Live - таба, видео

Регистрация Запомнить меня
Войти через:  Facebook Google Twitter Vk Yandex Mail.ru

Linkin Park - What Ive Done Live - таба, видео

Печатать
Просмотров: 176
Уроки эстрадного вокала в Санкт-Петербурге
What I've Done (Live) - Solo Tab

Tuning: Dropped D (Just because this is what the whole song is
played in.)

Note: This is the solo from Linkin Park's live performance of 
"What I've Done" at the Rock am Ring Festival in 2014.  Brad 
played an awesome solo, and I noticed that no one had done a 
tab for it on Ultimate Guitar, so here is my take on it from 
watching them play it as well as listening to it.  To get the 
timing correct, you just have to listen to the solo.

__________________________

Key

~  = let ring
v  = vibrato
b  = bend
\  = slide down
/  = slide up
p  = pull off
__________________________


E|--------------------------------------------------------------------------|
B|----------------------------------11~-------------------------------------|
G|----10----10----10----10----12--------------10----10----10----10----12----|
D|-12----12----12----12----12----12--------12----12----12----12----12----12-|
A|--------------------------------------------------------------------------|
D|--------------------------------------------------------------------------|

E|--------------------------------------------------------------------------|
B|-10----------------------------------------------11~----------------------|
G|-------12----10----10----10----10----10----12--------------10----10----10-|
D|----12----12----12----12----12----12----12----12--------12----12----12----|
A|--------------------------------------------------------------------------|
D|--------------------------------------------------------------------------|

E|--------------------------------------------------------------------------|
B|----------------10--------------------------------------------------------|
G|----10----12----------12-12-12-12v-12v-12v-12-12-12-12-10-------------10--|
D|-12----12----12----12-------------------------------------12-12-12-12-----|
A|--------------------------------------------------------------------------|
D|--------------------------------------------------------------------------|

E|--------------------------------------------------------------------------|
B|--------------------------------------------------------------------------|
G|-10-10-12-12-12-12-12-12-12-12-10--------------------------------------5--|
D|----------------------------------12-12-12-12-10-10-10-10--10-10\4/5-8----|
A|--------------------------------------------------------------------------|
D|--------------------------------------------------------------------------|

E|--------------------------------------------------------------------------|
B|---------6---------------------------------6-------6----------13/15bv-----|
G|---5/7b----7b--5-----------------5---5/7b----7b-7b---7b--10p7-------------|
D|-8---------------8-8-7-7-----5-8---8--------------------------------------|
A|-------------------------8-8----------------------------------------------|
D|--------------------------------------------------------------------------|

E|----------------------13-13-13-13-13-13-18-18-17-17-15-15-13--------------|
B|-15\13/15bv--15\13/15-15-15-15-15-15-15----------------------15\13--------|
G|-------------------------------------------------------------------12-12--|
D|--------------------------------------------------------------------------|
A|--------------------------------------------------------------------------|
D|--------------------------------------------------------------------------|

E|--------------------------------------------------------------------------|
B|-------------------------------13-13-13-13-15-15-15-15-15-15-15-15-15-15--|
G|-12-12-14-14-14-14-15-15-15-15--------------------------------------------|
D|--------------------------------------------------------------------------|
A|--------------------------------------------------------------------------|
D|--------------------------------------------------------------------------|

E|--------------------------------------------------------------------------|
B|-15-15-15-15-15-15-15-15-15-15-15-15-15-15--------------------------------|
G|--------------------------------------------------------------------------|
D|-------------------------------------------12----12----12----12-----------|
A|----------------------------------------------10----10----10----10--------|
D|--------------------------------------------------------------------------|

If there's any confusion, questions, or advice on how to 
improve it, please post a comment. Have fun playing, and 
please rate! -Rarrlow
Добавлено: 26.08.2015
Другие материалы по этой песне:
  • Аккорды и текст

Страница создана 26.08.2015
http://primanota.ru/linkin-park/what-ive-done-live-chords.htm
Привет, Гость.
Предлагаем пройти революционный курс по гитаре.
Подарок от PrimaNota.Ru, забирай!