PrimaNota.ru - самый крупный в мире бесплатный архив песенных текстов, аккордов, табулатур и нот


Linkin Park - The Summoning - таба, видео

Регистрация Запомнить меня
Войти через:  Facebook Google Twitter Vk Yandex Mail.ru

Linkin Park - The Summoning - таба, видео

Печатать
Просмотров: 127
Уроки эстрадного вокала в Санкт-Петербурге
Drop D tuining for all guitars

0:15 - Guitars 1 and 2
|-------------------------------------------------|
|-------------------------------------------------|
|-------------------------------------------------|
|-0-----------------------------------------------|
|-0-----------------------------------------------|
|-0-----------------------------------------------|

0:29 - Guitars 1 and 2
|-------------------------------------------------|
|-------------------------------------------------|
|-------------------------------------------------|
|-0--------------0--------------------------------|
|-0--(glitch)----0--------------------------------|
|-0--------------0--------------------------------|

0:38 (approximately) until 0:54 - Guitars 1 and 2
|-------------------------------------------------|
|-------------------------------------------------|
|-----------------------------7~------------------|
|-(fade in slowly w/feedback)-x-------------------|
|-----------------------------5~------------------|
|-------------------------------------------------|

0:47 (approximately) until 0:54 - Guitar 3 (looped)
|-------------------------------------------------|
|-------------7*-7*-7*-------7*-7*-7*-------------|
|-7*-7*-7*-------------7*-7*----------------------|
|----------7*-------------------------7*-7*-7*-7*-|
|-------------------------------------------------|
|-------------------------------------------------|
Добавлено: 26.08.2015
Другие материалы по этой песне:
  • Аккорды и текст

Страница создана 26.08.2015
http://primanota.ru/linkin-park/summoning-chords.htm
Привет, Гость.
Предлагаем пройти революционный курс по гитаре.
Подарок от PrimaNota.Ru, забирай!