PrimaNota.ru - самый крупный в мире бесплатный архив песенных текстов, аккордов, табулатур и нот


Lindemann - Fish On - таба, бас-таба, видео

Регистрация Запомнить меня
Войти через:  Facebook Google Twitter Vk Yandex Mail.ru

Lindemann - Fish On - таба, бас-таба, видео

Печатать
Просмотров: 836
Авторы музыки: Peter Tägtgren
Авторы текста: Till Lindemann
-------------------------------------------------------------------------------
                             Fish On - Lindemann
-------------------------------------------------------------------------------
Tabbed by: Cheater349
E-mail: mikhail349349@gmail.com

Tuning: Drop D

Riff
e|------------------------------------||-------------------------------------|
B|------------------------------------||-------------------------------------|
G|------------------------------------||-------------------------------------|
D|------------------------------------||-------------------------------------|
A|-7---7---7---7-8-7---7---7---7------||---------7---7---7-8-8-8-8-8\5-5-5-5-|
D|-7---7---7---7-8-7---7---7---7-14~~-||-(14)\---7---7---7-8-8-8-8-8\5-5-5-5-|

Verse
e|---------------------------------||-------------------------------------|
B|---------------------------------||-------------------------------------|
G|---------------------------------||-------------------------------------|
D|---------------------------------||-------------------------------------|
A|-7\-------------------------------||-7---7---7-8-7-5-7---7---7-8-7-5----|
D|-7\-------------------------------||-7---7---7-8-7-5-7---7---7-8-7-5----| x2


e|---------------------------------||---------------------------------|
B|---------------------------------||---------------------------------|
G|---------------------------------||---------------------------------|
D|---------------------------------||---------------------------------|
A|-----0-------0-------0-------0---||-7---7---7-8-7-5-7---7---7-8-7-5-|
D|-0-0-0-0-0-0-0-0-0-0-0-0-0-0-0-0-||-7---7---7-8-7-5-7---7---7-8-7-5-| x2
   x x   x x x   x x x   x x x   x

Pre-chorus
e|---------------------------------|
B|---------------------------------|
G|---------------------------------|
D|-9-9-9-9-7-7-7-7-5-5-5-5-4-4-4-4-|
A|-7-7-7-7-5-5-5-5-3-3-3-3-2-2-2-2-|
D|---------------------------------|

Chorus
e|---------------------------------||---------------------------------|
B|---------------------------------||---------------------------------|
G|---------------------------------||---------------------------------|
D|---------------------------------||---------------------------------|
A|-2-2-2-2-2-2-2-2-4-4-4-4-5-5-5-5-||-7-7-7-7-7-7-7-7-0-0-0-0-0-0-0-0-|
D|-2-2-2-2-2-2-2-2-4-4-4-4-5-5-5-5-||-7-7-7-7-7-7-7-7-0-0-0-0-0-0-0-0-|

e|-----------------------------------------||---------------------------------|
B|-----------------------------------------||---------------------------------|
G|-----------------------------------------||---------------------------------|
D|-----------------------------------------||---------------------------------|
A|-10-10-10-10-10-10-10-10-9-9-9-9-9-9-9-9-||-2---2---2-3-2-0-2---2---2-3-5-3-|
D|-10-10-10-10-10-10-10-10-9-9-9-9-9-9-9-9-||-2---2---2-3-2-0-2---2---2-3-5-3-|

End of the 1st chorus instead of previous bar

e|---------------------------------|
B|---------------------------------|
G|---------------------------------|
D|---------------------------------|
A|-2---2---2-3-2-0-2---2---2\------|
D|-2---2---2-3-2-0-2---2---2\------|

Bridge

e|---------------------------------||---------------------------------|
B|---------------------------------||---------------------------------|
G|---------------------------------||---------------------------------|
D|---------------------------------||---------------------------------|
A|-2---2---2-3-2-0-2---2---2-3-5-3-||-2---2---2-3-2-0-2---2---2-6-5-3-|
D|-2---2---2-3-2-0-2---2---2-3-5-3-||-2---2---2-3-2-0-2---2---2-6-5-3-| x2

End of the song

e|---------------------------------|
B|---------------------------------|
G|---------------------------------|
D|---------------------------------|
A|-2---2---2-3-2-0-2---------------|
D|-2---2---2-3-2-0-2---------------|


************************************

| /   slide up
| \   slide down
| h   hammer-on
| p   pull-off
| ~   vibrato
| +   harmonic
| x   Mute note
| b   Bend
| pb  Pre-bend
| br  Bend release
| pbr Pre-bend release
| brb Bend release bend

************************************
Добавлено: 11.09.2015
Другие материалы по этой песне:

Страница создана 11.09.2015
http://primanota.ru/lindemann/fish-on-chords.htm
Привет, Гость.
Предлагаем пройти революционный курс по гитаре.
Подарок от PrimaNota.Ru, забирай!