PrimaNota.ru - самый крупный в мире бесплатный архив песенных текстов, аккордов, табулатур и нот


Lindemann - Golden Shower - таба, видео

Регистрация Запомнить меня
Войти через:  Facebook Google Twitter Vk Yandex Mail.ru

Lindemann - Golden Shower - таба, видео

Печатать
Просмотров: 627
Уроки эстрадного вокала в Санкт-Петербурге
Авторы музыки: Peter Tägtgren
Авторы текста: Till Lindemann
-------------------------------------------------------------------------------
                             Golden Shower - Lindemann
-------------------------------------------------------------------------------
Tabbed by: Cheater349
E-mail: mikhail349349@gmaio.com

Tuning: A-A-D-G-B-E

Riff A and Bridge

e|------------------------------------------------------------------------|
B|------------------------------------------------------------------------|
G|------------------------------------------------------------------------|
D|-2-2-2-2-2-2-2-5---5-5-5-5-5-5-5-10-10-10-10-10-10-10-7---7-7-7-7-7-7-7-|
A|-0-0-0-0-0-0-0-3---3-3-3-3-3-3-3-8--8--8--8--8--8--8--5---5-5-5-5-5-5-5-|
A|-0-0-0-0-0-0-0-3---3-3-3-3-3-3-3-8--8--8--8--8--8--8--5---5-5-5-5-5-5-5-| 

e|---------------------------------------------------------------------------|
B|---------------------------------------------------------------------------|
G|---------------------------------------------------------------------------|
D|-2-2-2-2-2-2-2-5---5-5-5-5-5-5-5-10-10-10-10-10-10-10-7---7-7-7-7-12-12-12-|
A|-0-0-0-0-0-0-0-3---3-3-3-3-3-3-3-8--8--8--8--8--8--8--5---5-5-5-5-10-10-10-|
A|-0-0-0-0-0-0-0-3---3-3-3-3-3-3-3-8--8--8--8--8--8--8--5---5-5-5-5-10-10-10-|   x2

Riff B

e|-----------------------------------------------------------------|
B|-----------------------------------------------------------------|
G|-----------------------------------------------------------------|
D|-9---9---9-9-9---9---9---9-9-9---9---9---9-9-9---9-9-9---9-9-9---|
A|-7---7---7-7-7---7---7---7-7-7---7---7---7-7-7---7-7-7---7-7-7---|
A|-7---7---7-7-7---7---7---7-7-7---7---7---7-7-7---7-7-7---7-7-7---| x4

e|--------------------------------|
B|--------------------------------|
G|--------------------------------|
D|-9------------------------------|
A|-7------------------------------|
A|-7------------------------------|

Pre-chorus

e|-----------------------------------------------------------------|
B|-----------------------------------------------------------------|
G|-----------------------------------------------------------------|
D|-9---9---9-9-9---9---9---9-9-9---9---9---9-9-9---9---9---9-9-9---|
A|-7---7---7-7-7---7---7---7-7-7---7---7---7-7-7---7---7---7-7-7---|
A|-7---7---7-7-7---7---7---7-7-7---7---7---7-7-7---7---7---7-7-7---| x4

Chorus

e|-----------------------------------------------------------------|
B|-----------------------------------------------------------------|
G|-----------------------------------------------------------------|
D|-9---9---9-9-9---9---9---9-9-9---9---9---9-9-9---9---9---9-9-9---|
A|-7---7---7-7-7---7---7---7-7-7---7---7---7-7-7---7---7---7-7-7---|
A|-7---7---7-7-7---7---7---7-7-7---7---7---7-7-7---7---7---7-7-7---| 

e|-----------------------------------------------------------------|
B|-----------------------------------------------------------------|
G|-----------------------------------------------------------------|
D|-4---4---4-4-4---4---4---4-4-4---4---4---4-4-4---4---4---4-4-4---|
A|-2---2---2-2-2---2---2---2-2-2---2---2---2-2-2---2---2---2-2-2---|
A|-2---2---2-2-2---2---2---2-2-2---2---2---2-2-2---2---2---2-2-2---| 

e|-----------------------------------------------------------------|
B|-----------------------------------------------------------------|
G|-----------------------------------------------------------------|
D|-9---9---9-9-9---9---9---9-9-9---9---9---9-9-9---9---9---9-9-9---|
A|-7---7---7-7-7---7---7---7-7-7---7---7---7-7-7---7---7---7-7-7---|
A|-7---7---7-7-7---7---7---7-7-7---7---7---7-7-7---7---7---7-7-7---| 

e|-----------------------------------------------------------------|
B|-----------------------------------------------------------------|
G|-----------------------------------------------------------------|
D|-4---4---4-4-4---4---4---4-4-4---2---2---2-2-2---2---2---2-2-2---|
A|-2---2---2-2-2---2---2---2-2-2---0---0---0-0-0---0---0---0-0-0---|
A|-2---2---2-2-2---2---2---2-2-2---0---0---0-0-0---0---0---0-0-0---| x2


************************************

| /   slide up
| \   slide down
| h   hammer-on
| p   pull-off
| ~   vibrato
| +   harmonic
| x   Mute note
| b   Bend
| pb  Pre-bend
| br  Bend release
| pbr Pre-bend release
| brb Bend release bend

************************************
Добавлено: 11.09.2015
Другие материалы по этой песне:

Страница создана 11.09.2015
http://primanota.ru/lindemann/golden-shower-chords.htm
Привет, Гость.
Предлагаем пройти революционный курс по гитаре.
Подарок от PrimaNota.Ru, забирай!