PrimaNota.ru - самый крупный в мире бесплатный архив песенных текстов, аккордов, табулатур и нот


Lindemann - Fat - бас-таба, видео

Регистрация Запомнить меня
Войти через:  Facebook Google Twitter Vk Yandex Mail.ru

Lindemann - Fat - бас-таба, видео

Печатать
Просмотров: 130
Авторы музыки: Peter Tägtgren
Авторы текста: Till Lindemann
-------------------------------------------------------------------------------
                             Fat - Lindemann
-------------------------------------------------------------------------------
Tabbed by: Stancranford
E-mail: simonhawkinsuk@gmail.com

Tuning: AEADG (5 String Bass)

Main Riff

G|--------------------------------------------------------|
D|--------------------------------------------------------|
A|--------------------------------------------------------|
E|--------------------------------------------------------|
A|-2h3--0--0--3h5--0--0--3--0--2h3--0--0--3h5--0--0--5--0-|

G|--------------------------------------------------------|
D|--------------------------------------------------------|
A|--------------------------------------------------------|
E|-------------------------------------------3--3--3--2h3-|
A|-2h3--0--0--3h5--0--0--3--0--5--5--5--4h5---------------|

G|--------------------------------------------------------|
D|--------------------------------------------------------|
A|--------------------------------------------------------|
E|--------------------------------------------------------|
A|-2h3--0--0--3h5--0--0--3--0--2h3--0--0--3h5--0--0--5--0-|

G|--------------------------------------------------------|---------|
D|--------------------------------------------------------|---------|
A|--------------------------------------------------------|---------|
E|-------------------------------------------3--3--3--2h3-|-5\------|
A|-2h3--0--0--3h5--0--0--3--0--5--5--5--4h5---------------|---------|

Verse

G|-----|-------|------|-------------|-----------|-----------|-----------|
D|-----|-------|------|-------------|-----------|-----------|-----------|
A|-----|-------|------|---0---0--0--|-0---0--0--|-0---0--0--|-0---0--0--|
E|-----|---5---|------|-3-----------|-----------|-----------|-----------|
A|-----|-0-----|------|-------------|-----------|-----------|-----------|

G|-------------|-----------|-----------|---------------------|
D|-------------|-----------|-----------|---------------------|
A|---0---0--0--|-0---0--0--|-0---0--0--|---------------------|
E|-3-----------|-----------|-----------|------0-0--1-1--3-3--|
A|-------------|-----------|-----------|-5-5-----------------|

Chorus

G|--------------------------------------------------------|
D|--------------------------------------------------------|
A|--------------------------------------------------------|
E|--------------------------------------------------------|
A|-2h3--0--0--3h5--0--0--3--0--2h3--0--0--3h5--0--0--5--0-|

G|--------------------------------------------------------|
D|--------------------------------------------------------|
A|--------------------------------------------------------|
E|-------------------------------------------3--3--3--2h3-|
A|-2h3--0--0--3h5--0--0--3--0--5--5--5--4h5---------------|

G|--------------------------------------------------------|
D|--------------------------------------------------------|
A|--------------------------------------------------------|
E|--------------------------------------------------------|
A|-2h3--0--0--3h5--0--0--3--0--2h3--0--0--3h5--0--0--5--0-|

G|--------------------------------------------------------|
D|--------------------------------------------------------|
A|--------------------------------------------------------|
E|-------------------------------------------3--3--3--2h3-|
A|-2h3--0--0--3h5--0--0--3--0--5--5--5--4h5---------------|

Verse

G|--------------------------------|--------------------------------|
D|--------------------------------|--------------------------------|
A|--------------------------------|--------------------------------|
E|-5\----3h5-5-5--------3h5-5-5-3-|-------3h5-5-5--------3h5-5-5-3-|
A|----0-----------0--0------------|-0--0-----------0--0------------|

G|--------------------------------|------------------------------------|
D|--------------------------------|------------------------------------|
A|--------------------------------|------------------------------------|
E|-------3h5-5-5--------3h5-5-5-3-|-------3h5-5-5-------0-0--1-1--3-3--|
A|--0--0-----------0--0-----------|-0--0-----------5-5-----------------|

Chorus

G|--------------------------------------------------------|
D|--------------------------------------------------------|
A|--------------------------------------------------------|
E|--------------------------------------------------------|
A|-2h3--0--0--3h5--0--0--3--0--2h3--0--0--3h5--0--0--5--0-|

G|--------------------------------------------------------|
D|--------------------------------------------------------|
A|--------------------------------------------------------|
E|-------------------------------------------3--3--3--2h3-|
A|-2h3--0--0--3h5--0--0--3--0--5--5--5--4h5---------------|

G|--------------------------------------------------------|
D|--------------------------------------------------------|
A|--------------------------------------------------------|
E|--------------------------------------------------------|
A|-2h3--0--0--3h5--0--0--3--0--2h3--0--0--3h5--0--0--5--0-|

G|--------------------------------------------------------|
D|--------------------------------------------------------|
A|--------------------------------------------------------|
E|-------------------------------------------3--3--3--2h3-|
A|-2h3--0--0--3h5--0--0--3--0--5--5--5--4h5---------------|

Bridge

G|---------------------------------------------------------|
D|---------------------------------------------------------|
A|-------5-----------------1-1-1-1-0-0-0-0-----------------|
E|----------7--3--1--0--1------------------3-3-3-3-1-1-1-1-|
A|-5--5----------------------------------------------------|

G|---------------------------------------------------------|
D|---------------------------------------------------------|
A|-------5-----------------1-1-1-1-0-0-0-0-----------------|
E|----------7--3--1--0--1------------------3-3-3-3-1-1-1-1-|
A|-5--5----------------------------------------------------|

G|----------------------------------|
D|----------------------------------|
A|-3-3-3-3-3-3-3--------------------|
E|---------------3------------------|
A|-----------------3-3-3-3-3--3--3--|

Rest during organ interlude

Chorus (Repeat x2)

G|--------------------------------------------------------|
D|--------------------------------------------------------|
A|--------------------------------------------------------|
E|--------------------------------------------------------|
A|-2h3--0--0--3h5--0--0--3--0--2h3--0--0--3h5--0--0--5--0-|

G|--------------------------------------------------------|
D|--------------------------------------------------------|
A|--------------------------------------------------------|
E|-------------------------------------------3--3--3--2h3-|
A|-2h3--0--0--3h5--0--0--3--0--5--5--5--4h5---------------|

G|--------------------------------------------------------|
D|--------------------------------------------------------|
A|--------------------------------------------------------|
E|--------------------------------------------------------|
A|-2h3--0--0--3h5--0--0--3--0--2h3--0--0--3h5--0--0--5--0-|

G|--------------------------------------------------------|
D|--------------------------------------------------------|
A|--------------------------------------------------------|
E|-------------------------------------------3--3--3--2h3-|
A|-2h3--0--0--3h5--0--0--3--0--5--5--5--4h5---------------|


| \  slide down
| h  hammer-on

===============================================================================
Добавлено: 29.04.2016
Вам также может быть интересно:
Другие материалы по этой песне:

Страница создана 11.09.2015
http://primanota.ru/lindemann/fat-chords.htm
Привет, Гость.
Предлагаем пройти революционный курс по гитаре.
Подарок от PrimaNota.Ru, забирай!