PrimaNota.ru - самый крупный в мире бесплатный архив песенных текстов, аккордов, табулатур и нот


Lindemann - Children Of The Sun - таба, бас-таба, видео

Регистрация Запомнить меня
Войти через:  Facebook Google Twitter Vk Yandex Mail.ru

Lindemann - Children Of The Sun - таба, бас-таба, видео

Печатать
Просмотров: 472
Авторы музыки: Peter Tägtgren
Авторы текста: Till Lindemann
-------------------------------------------------------------------------------
                             Children Of The Sun - Lindemann
-------------------------------------------------------------------------------
Tabbed by: Cheater349
E-mail: mikhail349349@gmail.com

Tuning: A-A-D-G-B-E

Riff and Verse

e|---------------------------------||---------------------------------|
B|---------------------------------||---------------------------------|
G|---------------------------------||---------------------------------|
D|---------------------------------||---------------------------------|
A|-0-1-----3-0-----0-1-------------||-0-1-----3-0-----3/5-5-5-5/6-6-6-|
A|-0-1-0-0-3-0-0-0-0-1-0-0-0-0-0-0-||-0-1-0-0-3-0-0-0-3/5-5-5-5/6-6-6-| 
       x x     x x     x x x x x x        x x     x x       

e|---------------------------------||---------------------------------|
B|---------------------------------||---------------------------------|
G|---------------------------------||---------------------------------|
D|---------------------------------||---------------------------------|
A|-0-1-----3-0-----0-1-------------||-0-1-----3-0-----3/6-6-6-6\5-5-5-|
A|-0-1-0-0-3-0-0-0-0-1-0-0-0-0-0-0-||-0-1-0-0-3-0-0-0-3/6-6-6-6\5-5-5-| x3
       x x     x x     x x x x x x        x x     x x   

Pre-chorus

e|----------------------------------||---------------------------------|
B|----------------------------------||---------------------------------|
G|----------------------------------||---------------------------------|
D|----------------------------------||---------------------------------|
A|----------------------------------||---------------------------------|
A|-0-0-0-3-8-8-5-5-0-0-0-3-7-7-5555-||-0-0-0-3-8-8-5-5-7-7-7-7-7-7-7-7-|
                               xxxx

Chorus

e|---------------------------------||-----------------------------------------|
B|---------------------------------||-----------------------------------------|
G|---------------------------------||-----------------------------------------|
D|-2-2-2-2-2-2-2-2-2-2-2-2-2-2-2-2-||-10-10-10-10-10-10-10-10-9-9-9-9-9-9-9-9-|
A|-0-0-0-0-0-0-0-0-0-0-0-0-0-0-0-0-||-8--8--8--8--8--8--8--8--7-7-7-7-7-7-7-7-|
A|-0-0-0-0-0-0-0-0-0-0-0-0-0-0-0-0-||-8--8--8--8--8--8--8--8--7-7-7-7-7-7-7-7-|

After 1st Chorus

e|---------------------------------||---------------------------------|
B|---------------------------------||---------------------------------|
G|---------------------------------||---------------------------------|
D|---------------------------------||---------------------------------|
A|-0-1-----0-1-----0-1-----0-1-----||-0-1-----0-1-----0-1-----0-------|
A|-0-1-0-0-0-1-0-0-0-1-0-0-0-1-0-0-||-0-1-0-0-0-1-0-0-0-1-0-0-0-------|
       x x     x x     x x     x x        x x     x x     x x   

Bridge

e|------------------------------------|
B|------------------------------------|
G|------------------------------------|
D|-9---9-9-4---4-4-12---12-12-7---7-7-|
A|-7---7-7-2---2-2-10---10-10-5---5-5-|
A|-7---7-7-2---2-2-10---10-10-5---5-5-| x4

************************************

| /   slide up
| \   slide down
| h   hammer-on
| p   pull-off
| ~   vibrato
| +   harmonic
| x   Mute note
| b   Bend
| pb  Pre-bend
| br  Bend release
| pbr Pre-bend release
| brb Bend release bend

************************************
Добавлено: 11.09.2015
Другие материалы по этой песне:
  • Аккорды и текст

Страница создана 24.08.2015
http://primanota.ru/lindemann/children-of-sun-chords.htm
Привет, Гость.
Предлагаем пройти революционный курс по гитаре.
Подарок от PrimaNota.Ru, забирай!