PrimaNota.ru - самый крупный в мире бесплатный архив песенных текстов, аккордов, табулатур и нот


La Dispute - Twelve - таба, видео

Регистрация Запомнить меня
Войти через:  Facebook Google Twitter Vk Yandex Mail.ru

La Dispute - Twelve - таба, видео

Печатать
Просмотров: 123
Hey, Noticed there weren't any tabs of this on here so I decided
to try and figure it out myself. I've only figured out the
intro for now, will add more soon.

Standard Tuning: Eadgbe

e------7--4s2-2p0-----------4-7-------7---4s2--2p0-----------4-7--|
b------5---------2p0-----5h7--5-------5-----------2p0----5h7---5--|
g------6----------------------6-------6------------------------6--|
d-----------------------------------------------------------------|
a-------------------------------------0--------0---------0-----0--|
E------0------0----------0----------------------------------------|

The finger positioning can be a bit tricky here*
     (*______________*)
 ------7--4s2-2p0--------7s9---7--4-------------------------------|
 ------5----------2p0----0-----0--5-------------------------------|
 ------6----------------------------------------------------------|
 -----------------------------------------------------------------|
 ------4------4----------0----------------------------------------|
 ---------------------------------0-------------------------------|

Leave a comment if you've got any corrections
etc.
Peace!
Добавлено: 04.04.2012
Другие материалы по этой песне:

Страница создана 04.04.2012
http://primanota.ru/la-dispute/twelve-chords.htm
Привет, Гость.
Предлагаем пройти революционный курс по гитаре.
Подарок от PrimaNota.Ru, забирай!