PrimaNota.ru - самый крупный в мире бесплатный архив песенных текстов, аккордов, табулатур и нот


La Dispute - Future Wars - текст песни, таба, видео

Регистрация Запомнить меня
Войти через:  Facebook Google Twitter Vk Yandex Mail.ru

La Dispute - Future Wars - текст песни, таба, видео

Печатать
Просмотров: 176
Great song. When you want to learn a song that you love and can't find even one 
tab for it, it sucks. It really sucks. I used to scour the internet for tabs on 
this song, and found nothing. So here's my gift to some La Dispute fans that are 
in the position that I was once in. Enjoy guys! Please comment on any mistakes or 
imperfections, and I will fix it ASAP.


Intro:

E|----------0~------------------|
B|----------0~------------------|
G|----------0~------------------|
D|-0~--------------*Pickslide*--|
A|-0~---------------------------|
D|-0~---------------------------|


Figure 1:

E|----------------------------| \
B|----------------------------|  \
G|----------------------------|   \
D|----------------------------|    \
A|-------3p0-2p0--------3p0---|     \
D|-0~-5p0---------0~-5p0---3--|[x3]  \      
                                     [x2]
E|----------------------------|      /
B|----------------------------|     /
G|----------------------------|    /
D|----------------x5--x3------|   /
A|-------3p0-2p0--x5--x3------|  /
D|-0~-5p0---------x5--x3------| /



Figure 2:
E|---------------------|
B|---------------------|
G|---------------------|
D|-0-0000-0-0000-0-3---|
A|-0-0000-0-0000-0-3---|
D|-0-0000-0-0000-0-3---| x5
     xxxx   xxxx
E|----------------|
B|----------------|
G|----------------|
D|-0-0000-0--/----|
A|-0-0000-0--/----|
D|-0-0000-0--/-3b-|
     xxxx


Figure 3:

E|----------------------------| 
B|----------------------------|  
G|----------------------------|   
D|----------------------------|    
A|-------3p0-2p0--------3p0---|     
D|-0~-5p0---------0~-5p0---3--| x2

E|----------------------------|
B|----------------------------|  
G|----------------------------|   
D|-0000-5-0000-3--8--3--------|    
A|-0000-5-0000-3--8--3--------|     
D|-0000-5-0000-3--8--3--------|

E|----------------------------| 
B|----------------------------|  
G|----------------------------|   
D|----------------------------|    
A|-------3p0-2p0--------3p0---|     
D|-0~-5p0---------0~-5p0---3--| x2

E|---------------------------|
B|--------------------9--9---|  
G|-------------------12-12---|   
D|-0000-5-0000-3--8----------|    
A|-0000-5-0000-3--8----------|     
D|-0000-5-0000-3--8----------|


Figure 4:

E|----------------------| 
B|----------------------|  
G|----------------------|   
D|-2h3-3h4-4h5-5h6-6h7--|    
A|----------------------|     
D|----------------------| x4

E|----------------------| 
B|----------------------|  
G|----------------------|   
D|-2h3-3h4-4h5-5h6-6h7--|    
A|-2h3-3h4-4h5-5h6-6h7--|     
D|-2h3-3h4-4h5-5h6-6h7--| x4

E|-------------------------------| 
B|-------------------------------|  
G|-------------------------------|   
D|-2h3--3h4--4h5--5h6h7-6h7-7h8--|    
A|-2h3--3h4--4h5--5h6h7-6h7-7h8--|     
D|-2h3--3h4--4h5--5h6h7-6h7-7h8--| x4



Figure 5:

E|----------------------|
B|------------------6-6-|  
G|------------------9-9-|   
D|-00-3~----00-3x-------|    
A|-00-3~----00-3x-------|     
D|-00-3~----00-3x-------|
   xx       xx

E|----------------------|
B|-------------------9~-|  
G|------------------12~-|   
D|-00-3~----00-3x-------|    
A|-00-3~----00-3x-------|     
D|-00-3~----00-3x-------|

E|----------------------|
B|-------------------6~-|  
G|-------------------9~-|   
D|-00-3~----00-3x-------|    
A|-00-3~----00-3x-------|     
D|-00-3~----00-3x-------|

E|--------------------------|
B|---------------------0~---|  
G|---------------------0~---|   
D|-00-3~----00-3x---------0-|    
A|-00-3~----00-3x---------0-|     
D|-00-3~----00-3x---------0-|



Figure 6:
E|-------------------|
B|-------------------|  
G|-------------------|   
D|------------1111---|    
A|------------1111---|     
D|------------1111---|
          
E|----------|
B|----------|  
G|----------|   
D|----------|    
A|----------|     
D|-0-0-00~--|
   x x xx


Figure 7:

E|------------------------------------------------------|
B|------------------------------------------------------|  
G|------------------------------------------------------|   
D|-7p3(x16)-8p3(x16)-10p3(x16)-8p3(x8)-7p3(x4)-8p3(x4)--|    
A|------------------------------------------------------|     
D|------------------------------------------------------| x4


Figure 8:
          
E|----------------------------------------------|
B|--99999999999--12121212121212--171717171717---|  
G|-121212121212--15151515151515--202020202020—--|   
D|----------------------------------------------|    
A|----------------------------------------------|     
D|----------------------------------------------|

End with:
E|------------------------------|
B|--17\12--17\12--17\12--17\12--|  
G|--20\15--20\15--20\15--20\15--|   
D|------------------------------|    
A|------------------------------|     
D|------------------------------|
Добавлено: 22.06.2012
Другие материалы по этой песне:
  • Аккорды и текст

Страница создана 22.06.2012
http://primanota.ru/la-dispute/future-wars-chords.htm
Привет, Гость.
Предлагаем пройти революционный курс по гитаре.
Подарок от PrimaNota.Ru, забирай!