PrimaNota.ru - самый крупный в мире бесплатный архив песенных текстов, аккордов, табулатур и нот


Kyuss - Supa Scupa And The Mighty Scoop - таба, видео

Регистрация Запомнить меня
Войти через:  Facebook Google Twitter Vk Yandex Mail.ru

Kyuss - Supa Scupa And The Mighty Scoop - таба, видео

Печатать
Просмотров: 120
Song: Supa Scoopa and the Mighty Scoop
Album: Welcome to Sky Valley
Artist: Kyuss

Standard Tuning
Tabbed by Greg C

Intro - Play x2 before vocals then another x4 when vocals start

e|-----------------------------------------|
B|-----------------------------------------|
G|-----------------------------------------|
D|------------------------{-pm-}----{-pm-}-|
A|----{-pm-}----{-pm-}-8--8-8-8--8--8-8-8--|
E|-1--1-1-1--1--1-1-1----------------------|

e|---------------------------------------------------------|
B|---------------------------------------------------------|
G|---------------------------------------------------------|
D|-----{--pm--}------{--pm--}------{--pm--}------{--pm--}--|
A|-11--11-11-11--11--11-11-11--13--13-13-13--10--10-10-10--|
E|---------------------------------------------------------|

Verse - x1 before vocals then x3 with vocals

e|------------------------------------------------------------------|
B|------------------------------------------------------------------|
G|------------------------------------------------------------------|
D|-3-3-3-3-3-3-3-3-3-3-3-3-3-3-3-3-6-6-6-6-6-6-6-6-8-8-8-8-5-5-5-5--|
A|-3-3-3-3-3-3-3-3-3-3-3-3-3-3-3-3-6-6-6-6-6-6-6-6-8-8-8-8-5-5-5-5--|
E|-1-1-1-1-1-1-1-1-1-1-1-1-1-1-1-1-4-4-4-4-4-4-4-4-6-6-6-6-3-3-3-3--|

Chorus - x5

e|---------------------------------|
B|---------------------------------|
G|---------------------------------|
D|-3-3-3-3-3-3-3-3-10-------8------|
A|-3-3-3-3-3-3-3-3--8-------6------|
E|-1-1-1-1-1-1-1-1---4--4----1--1--|

Main Riff x8

e|------------------------------|
B|------------------h--p--------|
G|-------------h---8-10-8-------|
D|------------8-10--------10----|
A|-8--8-8--11----------------11-|
E|------------------------------|

Verse - x1 before vocals then x4 with vocals

e|------------------------------------------------------------------|
B|------------------------------------------------------------------|
G|------------------------------------------------------------------|
D|-3-3-3-3-3-3-3-3-3-3-3-3-3-3-3-3-6-6-6-6-6-6-6-6-8-8-8-8-5-5-5-5--|
A|-3-3-3-3-3-3-3-3-3-3-3-3-3-3-3-3-6-6-6-6-6-6-6-6-8-8-8-8-5-5-5-5--|
E|-1-1-1-1-1-1-1-1-1-1-1-1-1-1-1-1-4-4-4-4-4-4-4-4-6-6-6-6-3-3-3-3--|

Chorus - x5

e|---------------------------------|
B|---------------------------------|
G|---------------------------------|
D|-3-3-3-3-3-3-3-3-10-------8------|
A|-3-3-3-3-3-3-3-3--8-------6------|
E|-1-1-1-1-1-1-1-1---4--4----1--1--|

Then drum fill x2 before main riff

Main Riff x13

e|------------------------------|
B|------------------h--p--------|
G|-------------h---8-10-8-------|
D|------------8-10--------10----|
A|-8--8-8--11----------------11-|
E|------------------------------|

End Main Riff on...

e|-------|
B|-------|
G|-10----|
D|-10----|
A|-8-----|
E|-------|

Then the song compleely slows down and you get this new riff x37

e|-----------------------------|
B|-----------------------------|
G|--------------8--10----------|
D|------------8-------8--------|
A|-8--8--8-11------------11--8-|
E|-----------------------------|

Then just do this until the end when it just seems to slow down gradually and randomly

e|----------------------------------|
B|----------------------------------|
G|----------------------------------|
D|-3-3------------------------------|
A|-3-3------------------------------|
E|-1-1------------------------------|

Cheers for checking out the tab. I haven't got the solo but you can just improvise 
the F minor pentatonic scale.

Please rate this tab.
Добавлено: 20.07.2012
Другие материалы по этой песне:
  • Аккорды и текст

Страница создана 20.07.2012
http://primanota.ru/kyuss/supa-scupa-and-the-mighty-scoop-chords.htm
Привет, Гость.
Предлагаем пройти революционный курс по гитаре.
Подарок от PrimaNota.Ru, забирай!