PrimaNota.ru - самый крупный в мире бесплатный архив песенных текстов, аккордов, табулатур и нот


Kyuss - Beginning Of Whats About To Happen Hwy 74 - таба, видео

Регистрация Запомнить меня
Войти через:  Facebook Google Twitter Vk Yandex Mail.ru

Kyuss - Beginning Of Whats About To Happen Hwy 74 - таба, видео

Печатать
Просмотров: 108
Авторы музыки: John Garcia, Brant Bjork, Josh Homme, Nick Oliveri
Авторы текста: John Garcia, Brant Bjork, Josh Homme, Nick Oliveri
               (BEGINNING OF WHATS ABOUT TO HAPPEN)HWY 74 by Kyuss

Track #1 off the album WRETCH

Tabbed by:The Kaigernator

Tuning:B E A D F# B (really fecking low)

Very first bit:
|---------------------------------------------------------------------------|
|---------------------------------------------------------------------------|
|---------------------------------------------------------------------------|
|--------------0/7----------------------------------------------------------|
|----------------0----------------------------------------------------------|
|---------------------------------------------------------------------------|

Riff A:
|---------------------------------------------------------------------------|
|---------------------------------------------------------------------------|
|---------------------------------------------------------------------------|
|-----------------7-------------7------------7------------------------------|
|-------0-0-7-6-------0-0-7-6------0-0-7-6------6-5-3-6-5-3-----------------|
|---------------8-------------8------------8--------------------------------|

Riff B:
|---------------------------------------------------------------------------|
|---------------------------------------------------------------------------|
|---------------------------------------------------------------------------|
|---------------5---5/8-7-5-------------5---5/8-7-5-------------------------|
|------0-0-5-7-----------------0-0-5-7--------------------------------------|
|-----------------8------------------------8--------------------------------|

Riff A x2
Riff B x2
Riff A x2
Riff B x2

Then: (With palm mute)
|---------------------------------------------------------------------------|
|-----------------------------------------------------------5~--------------|
|---------------------------------------------------------------------------|
|---------8-0-7-0-5-0-------------------8-0-7-0-5-0-------------------------|
|-----0-0-------------0---0-0-0-0---0-0--------------0-0--------------------|
|---------------------------------------------------------------------------|

Riff C:
|---------------------------------------------------------------------------|
|---------------------------------------------------------------------------|
|---------------------------------------------------------------------------|
|-----------8---7---5---8---7------5--------8--7---5---8---7-----5----------|
|------0-0----0---0---0---0---5h7------0-0---0---0---0---0---5h7------------|
|---------------------------------------------------------------------------|

Riff C x2
Riff B x2
Riff C x2
Riff B x2

Then end on:
|---------------------------------------------------------------------------|
|---------------------5~~~--------------------------------------------------|
|---------------------------------------------------------------------------|
|-----------------5---------------------------------------------------------|
|------0-0--7-6-------------------------------------------------------------|
|---------------8-----------------------------------------------------------|

Thats all ive got so far, but im still working on it. Any critiscms, compliments welcome.

| /  slide up
| \  slide down
| h  hammer-on
| p  pull-off
| ~  vibrato
| +  harmonic
| x  Mute note
Добавлено: 11.03.2012
Другие материалы по этой песне:

Страница создана 11.03.2012
http://primanota.ru/kyuss/beginning-of-whats-about-to-happen-hwy-74-chords.htm
Привет, Гость.
Предлагаем пройти революционный курс по гитаре.
Подарок от PrimaNota.Ru, забирай!