PrimaNota.ru - самый крупный в мире бесплатный архив песенных текстов, аккордов, табулатур и нот


Kyuss - Big bike - таба, видео

Регистрация Запомнить меня
Войти через:  Facebook Google Twitter Vk Yandex Mail.ru

Kyuss - Big bike - таба, видео

Печатать
Просмотров: 129



Date: Tue, 3 Jul 2001 03:45:17 -0400
From: kwilliam@3wave.com
Subject: k/kyuss/big_bike.tab

Big Bike by Kyuss from their album Wretch.

Song is in drop d tuning but everything is down one-whole step
cgcfad

Distortion is the only guitar effect used, and it is used throughout
the song.


Intro riff

1-----------------------------------
2-----------------------------------
3-7-6-7---7-6-7---7-6-7---7-6-7-----
4-5-4-5---5-4-5---5-4-5---5-4-5---0-
5-5-4-5---5-4-5---5-4-5---5-4-5---0-
6---------------------------------0-

2nd Riff
            ~          ~
1-----------------------------------
2-----------------------------------
3-----------------------------------
4-----------------------------------
5-0-0-0-5-4-3-----------------------
6------------0-0-7-6-5-3------------

2nd Riff Alt.
            ~          ~
1-----------------------------------
2-----------------------------------
3-----------------------------------
4-0-0-0-7-6-5-----------------------
5-----------------------------------
6------------0-0-7-6-5-3------------

Main Riff

1-----------------------------------
2-----------------------------------
3-----------------------------------
4-0-0--0--0--0--0--0-3/53-3-0------
5-0-0--0--0--0--0--0-3/53-3-0------
6-0-0--0--0--0--0--0-3/53-3-0------

Chorus    I want some Pussy

1-----------------------------------
2-----------------------------------
3-----------------------------------
4-3-hold----------5/65/65/65/65-
5-3-hold----------5/65/65/65/65-
6-3-hold----------5/65/65/65/65-

Main Riff

Chorus

Main Riff (2 times)

Guitar Solo

1-----------------------------------
2-3---3---3---3---3-----------------
3--5^2-5^2-5^2-5^2-5^2-5^2-5^2-5^2/7
4-----------------------------------
5-----------------------------------
6-----------------------------------

1------------------------------------------------------------
2-6^5^3-----6^5^3-----6^5^3-----6^5^3------------------------
3------5^4^2-----5^4^2-----5^4^2-----5^4^2--5^3-5^3----------
4---------------------------------------------------5^3-5^3--
5-----------------------------------------------------------5
6------------------------------------------------------------

1-10-10-10-108-8-8-8-8/10-10-10---------
2----10-10-108---8-8-8/10-10-10---------
3--------------------------------12^(14)-
4----------------------------------------
5----------------------------------------
6----------------------------------------

1-----------------------------------------------------------------------
2---------------------------------------------------------------------13
3-10-12^(14)^12-10----10-12^(14)^12-10----10-12^(14)^12-10----10-12^(14)
4------------------12------------------12------------------12-----------
5-----------------------------------------------------------------------
6-----------------------------------------------------------------------

           ~~    ~~    ~~
1-----------------------------------------------------------------------
2-------------------------------------------------------------------10--
3-------------------------------------------------------------------10--
4-------------------------------------------------------------10-12-----
5-11^(13)----11^10^8-11^10^8-11^10^8-11^10^8-11^10^8----10-12-----------
6----------------------------------------------------12-----------------

       ~~~~~~~~~~~~~~~~~~~~~~~~~~~~~
1-----------------------------------------------------------------------
2----10---10---10-10-10-10--12--12-------12--12--12--12-----------------
3----10---10---10-10-10-10--12--12-------12--12--12--12-----------------
4-12---12---12----------------------------------------------------------
5-----------------------------------------------------------------------
6-----------------------------------------------------------------------

Main Riff

Chorus

Main Riff

2nd Riff (2 times)

2nd Riff Alt (2 times)

Intro Riff

Closing Riff (listen to song for rhythm)

1-------------------------------------
2-------------------------------------
3-------------------------------------
4-0-0--0--0-0-0--0-0--0-0-------------
5-0-0--0--0-0-0--0-0--0-0-------------
6-0-0--0--0-0-0--0-0--0-0-------------

Intro Riff

End on

4--0-
5--0-
6--0-


All of this tab is accurate but you may need to listen to the song to
get
every little bit right especially the different rhythms which are not
shown
here.  Thanks.

Tabbed by Keith (furtherdown@hotmail.com).


Добавлено: 02.11.2013
Другие материалы по этой песне:
  • Аккорды и текст

Страница создана 02.11.2013
http://primanota.ru/kyuss/big-bike-chords.htm
Привет, Гость.
Предлагаем пройти революционный курс по гитаре.
Подарок от PrimaNota.Ru, забирай!