PrimaNota.ru - самый крупный в мире бесплатный архив песенных текстов, аккордов, табулатур и нот


Kult - Podejdź Tu Proszę - аккорды и текст, видео

Регистрация Запомнить меня
Войти через:  Facebook Google Twitter Vk Yandex Mail.ru

Kult - Podejdź Tu Proszę - аккорды и текст, видео

Печатать
Просмотров: 34
Авторы текста: Kazik Staszewski
Podejdź Tu Proszę
Kult
Kult - Podejdź tu proszę
Tabbed by: damienos

Tuning: Standard


[verse 1]
Dm          
Podejdź tu, proszę
      Am
Jakie dobro Ci przynoszę, pełne
Dm
 Podejdź tu proszę
         C
A ja Cię wezmę

[verse 2]
Dm
Złóż ręce jakby
      Am
Do modlitwy czystej a niewinnej
Dm                     C      A
 Złóż ręce a ja Ciebie przyjmę

[verse 3]
Dm
Uklęknij proszę
     Am              
A dostaniesz, chłopcze, o co prosisz
Dm                     C    
 Uklęknij wiarę Ci przynoszę

[verse 4]
Dm
Podejdź tu, proszę
      Am
Jakie wiary cudne łany koszę
Dm                       C     A
Podejdź, gdy o to Cię poproszę

[chorus]
Dm      F                  C                 Am
A kiedy będziesz blisko to wpadniesz na moje uroczysko
Dm      F         C       Am
Tam Cię dopadnę i okradnę
Dm      F                C               Am
A kiedy będziesz mój, to wezmę Ciebie jakby swój
Dm         F          C        Am
Własnością moją teraz będziesz

[solo]
    Dm      F         C        Am
e|-------------------------------------------------|
B|------------------8-8------8----8-----8----------|
G|--7---7-9-10---10--------------------------------|
D|-----------------------10----10----10---10-------|
A|-------------------------------------------------|
E|-------------------------------------------------|
    Dm         F         C    Am
e|-------------------------------------------------|
B|--10-------------8-10--8-------------------------|
G|------7--7-9-10--------------9-7--------6--------|
D|-------------------------10------10-7-7----------|
A|-------------------------------------------------|
E|-------------------------------------------------|
    Dm      F         C        Am
e|-------------------------------------------------|
B|------------------8-8------8----8-----8----------|
G|--7---7-9-10---10--------------------------------|
D|-----------------------10----10----10---10-------|
A|-------------------------------------------------|
E|-------------------------------------------------|
    Dm         F         C    Am
e|-------------------------------------------------|
B|--10-------------8-10--8-------------------------|
G|------7--7-9-10--------------9-7--------6-7------|
D|-------------------------10------10-7-7----------|
A|-------------------------------------------------|
E|-------------------------------------------------|

[interlude]
Dm  Dm
Dm  Dm
Dm  Dm
Dm  Dm
Dm  Dm
Dm  Dm
Dm  Dm
Dm  Dm

[verse 5]
Dm
Podejdź tu, proszę
        Am
W mym pałacu jest dla Ciebie miejsce
Dm                    C      
 Poczekaj, jeno się rozejrzę

[verse 6]
Dm                      Am
Nie pierwszy Ty i nie ostatni jesteś moją ofiarą
Dm                          C      A
 Na pewno znasz tę historię starą

[verse 7]
Dm
Cię nie wypuszczę 
         Am
Już z uścisku mojego żelaznego
Dm                         C    
 Żegnaj się z życiem mój kolego

[verse 8]
Dm
Podejdź tu, proszę, 
     Am 
Jaką rozkosz Ci przynoszę, pełną
Dm                            C        A
 Doświadczysz jej tutaj przed śmiercią

[chorus]
Dm      F                  C                 Am
A kiedy będziesz blisko to wpadniesz na moje uroczysko
Dm      F         C       Am
Tam Cię dopadnę i okradnę
Dm      F                C               Am
A kiedy będziesz mój, to wezmę Ciebie jakby swój
Dm         F          C        Am
Własnością moją teraz będziesz

[solo]
    Dm      F         C        Am
e|-------------------------------------------------|
B|------------------8-8------8----8-----8----------|
G|--7---7-9-10---10--------------------------------|
D|-----------------------10----10----10---10-------|
A|-------------------------------------------------|
E|-------------------------------------------------|
    Dm         F         C    Am
e|-------------------------------------------------|
B|--10-------------8-10--8-------------------------|
G|------7--7-9-10--------------9-7--------6--------|
D|-------------------------10------10-7-7----------|
A|-------------------------------------------------|
E|-------------------------------------------------|
    Dm      F         C        Am
e|-------------------------------------------------|
B|------------------8-8------8----8-----8----------|
G|--7---7-9-10---10--------------------------------|
D|-----------------------10----10----10---10-------|
A|-------------------------------------------------|
E|-------------------------------------------------|
    Dm         F         C    Am
e|-------------------------------------------------|
B|--10-------------8-10--8-------------------------|
G|------7--7-9-10--------------9-7--------6-7------|
D|-------------------------10------10-7-7----------|
A|-------------------------------------------------|
E|-------------------------------------------------|
    Dm      F         C        Am
e|-------------------------------------------------|
B|------------------8-8------8----8-----8----------|
G|--7---7-9-10---10--------------------------------|
D|-----------------------10----10----10---10-------|
A|-------------------------------------------------|
E|-------------------------------------------------|
    Dm         F         C    Am
e|-------------------------------------------------|
B|--10-------------8-10--8-------------------------|
G|------7--7-9-10--------------9-7--------6--------|
D|-------------------------10------10-7-7----------|
A|-------------------------------------------------|
E|-------------------------------------------------|
    Dm      F         C        Am
e|-------------------------------------------------|
B|------------------8-8------8----8-----8----------|
G|--7---7-9-10---10--------------------------------|
D|-----------------------10----10----10---10-------|
A|-------------------------------------------------|
E|-------------------------------------------------|
    Dm         F         C    Am
e|-------------------------------------------------|
B|--10-------------8-10--8-------------------------|
G|------7--7-9-10--------------9-7--------6-7------|
D|-------------------------10------10-7-7----------|
A|-------------------------------------------------|
E|-------------------------------------------------|

[outro] (silence for few seconds)
Dm   F    C    Am
Dm   F    C    Am
Dm   F    C    Am
Dm   F    C    Am
Dm   F    C    Am
Dm   F    C    Am
Dm   F    C    Am
Dm


enjoy!
Добавлено: 10.05.2016
Другие материалы по этой песне:
  • Аккорды и текст

Страница создана 10.05.2016
http://primanota.ru/kult/podejdz-tu-prosze-chords.htm
Привет, Гость.
Предлагаем пройти революционный курс по гитаре.
Подарок от PrimaNota.Ru, забирай!