PrimaNota.ru - самый крупный в мире бесплатный архив песенных текстов, аккордов, табулатур и нот


Kult - Skazani - аккорды и текст, видео

Регистрация Запомнить меня
Войти через:  Facebook Google Twitter Vk Yandex Mail.ru

Kult - Skazani - аккорды и текст, видео

Печатать
Просмотров: 91
Уроки эстрадного вокала в Санкт-Петербурге
Авторы текста: Kazik Staszewski
Skazani
Kult
Kult - Skazani
Tabbed by: damienos

Tuning: Standard


[intro]
  C#m       C#m      C#m         C#m
e|----------------------------------------|
B|----------------------------------------|
G|----------------------------------------|
D|------6-6h7-6-4------------6-6h7-6-4-6--|
A|--4-7-----------7-6-4--4-7--------------|
E|----------------------------------------|
    F#m     F#m         C#m    C#m
e|----------------------------------------|
B|----------------------------------------|
G|----------------------------------------|
D|--7--4--4--7-4-7-4-7--6------6---6---6--|
A|------------------------7--7---7---7----|
E|----------------------------------------|
  C#m       C#m      C#m         C#m
e|----------------------------------------|
B|----------------------------------------|
G|----------------------------------------|
D|------6-6h7-6-4------------6-6h7-6-4-6--|
A|--4-7-----------7-6-4--4-7--------------|
E|----------------------------------------|
    F#m     F#m
e|----------------------|
B|----------------------|
G|----------------------|
D|--7--4--4--7-4-7-4-7--|
A|----------------------|
E|----------------------|
G#  G# G  G F# E E
C#m  C#m
C#m  C#m

[verse 1]
C#m                       F#m
Gdzie pochowałaś to, co w Tobie najcenniejszego?
C#m                        F#m
Kiedy wszystko zalałaś? Zrobiłaś to, dlaczego?
B                           A
Ja też bez winy nie jestem, pod sąd oddać chciałbym się
F#m G#  C#m
Mój lub Twój
C#m  C#m
C#m  C#m

[verse 2]
C#m                          F#m
Co między nami się stało, że złoto wyparowało?
 C#m                              F#m
Uciekło srebro, a wszystko inne totalnie pomatowiało?
B                               A
Ty też bez winy nie jesteś, pod sąd oddać chciałbym Cię
F#m  G#  C#m
Twój lub mój
C#m  C#m
C#m  C#m

[chorus]
D 
Nie wiesz tego co
C#m
Co powiedzieć chcę
       D
Że tak mądra jesteś
               C#m 
Tylko Ci się wydaje
D
Nie wiesz tego co
C#m
Myślę sobie sam
      A
Ja na Ciebie już od dawna
       G#  G# G  G F# E E
Sposób mam
C#m  C#m
C#m  C#m

[interlude]
C#m  C#m
C#m  C#m
F#m  F#m
C#m  C#m
C#m  C#m
C#m  C#m
F#m  F#m
G#  G# G  G F# E E
C#m  C#m
C#m  C#m

[verse 3]
C#m                         F#m
Znowu siedzę w pokoju coraz bardziej najebany
         C#m                      F#m
Ty w tym samym czasie udajesz, że ścierasz kurz ze ściany
B                      A
Razem, a nawet osobno, żyjemy pod dachem 
F#m G# C#m
jednym tu
C#m  C#m
C#m  C#m

[chorus]
D 
Nie wiesz tego co
C#m
Co powiedzieć chcę
       D
Że tak mądra jesteś
               C#m 
Tylko Ci się wydaje
D
Nie wiesz tego co
C#m
Myślę sobie sam
      A
Ja na Ciebie już od dawna
       G#  G# G  G F# E E
Sposób mam

[verse 4]
C#m                              F#m
Słowa takie kiedyś słyszałem, że diabeł wolność zabiera
C#m                               F#m
Jestem od dawna w niewoli, Ty też nie chcesz wolności teraz
B                           A
Serca splątały nam życia na zawsze, nie zmienisz 
F#m G#   C#m
 tego, o nie!
C#m  C#m
C#m  C#m

[chorus]
D 
Nie wiesz tego co
C#m
Co powiedzieć chcę
       D
Że tak mądra jesteś
               C#m 
Tylko Ci się wydaje
D
Nie wiesz tego co
C#m
Myślę sobie sam
      A
Ja na Ciebie już od dawna
       G#  G# G  G F# E E
Sposób mam
C#m  C#m
C#m  C#m

[outro]
C#m  C#m
C#m  C#m
F#m  F#m
C#m  C#m
C#m  C#m
C#m  C#m
F#m  F#m
G#  G# G  G F# E E
C#m

enjoy!
Добавлено: 10.05.2016
Другие материалы по этой песне:
  • Аккорды и текст

Страница создана 10.05.2016
http://primanota.ru/kult/skazani-chords.htm
Привет, Гость.
Предлагаем пройти революционный курс по гитаре.
Подарок от PrimaNota.Ru, забирай!