PrimaNota.ru - самый крупный в мире бесплатный архив песенных текстов, аккордов, табулатур и нот


Kult - Poznaj Swój Raj - аккорды и текст, видео

Регистрация Запомнить меня
Войти через:  Facebook Google Twitter Vk Yandex Mail.ru

Kult - Poznaj Swój Raj - аккорды и текст, видео

Печатать
Просмотров: 69
Авторы текста: Kazik Staszewski
Poznaj Swój Raj
Kult
Kult - Poznaj swój raj
Tabbed by: damienos

Tuning: Standard


[intro]
e|----------------------------------------------|
B|--4-3---3--------------3-4-3---3--------------|
G|------5---5-3-5-3-2-0--------5---5-3-5-3-2-0--|
D|----------------------------------------------|
A|----------------------------------------------|
E|----------------------------------------------|

e|----------------------------------------------|
B|----------------------------------------------|
G|--0---0-2-3--0-2-0---0--0---0-2-3--0-2-0---0--|
D|----3--------------3------3--------------3----|
A|----------------------------------------------|
E|----------------------------------------------|

e|--------3---------------------3---------------|
B|----4-6---3---------------4-6---3-------------|
G|-------------3-5-3-2-0--0----------3-5-3-2-0--|
D|----------------------------------------------|
A|----------------------------------------------|
E|----------------------------------------------|

e|----------------------------------------------|
B|----------------------------------------------|
G|--0---0-2-3--0-2-0---0--0---0-2-3--0-2-0---0--|
D|----3--------------3------3--------------3----|
A|----------------------------------------------|
E|----------------------------------------------|

G5 G5 G5 G5
G5 G5 G5 G5

[verse 1]
C5         G5         D5        G5
Wierzę, że Pan jednak mnie nie opuści
C5          G5         D5        G5
Jak by miał z rąk taką zdobycz wypuścić
F5        G5     F5             G5
Pan - ale który? Pytasz się zdziwiony
F5       G5          F5       G5
Otóż ten jeden z odpowiedniej strony

[verse 2]
C5   G5   C5          G5
Hej, hej, poznaj swój raj
C5   G5   C5       G5
Hej, hej, oddaj go nam
F5       G5      F5         G5
Mieliśmy wygrać, ale przegraliśmy
F5           G5        F5             G5
Ryj taki jak twój może w nocy się przyśnić

[chorus]
B5   F5   G5    
Hej, hej, poznaj swój raj
B5   F5   G5  
Hej, hej, sprzedaj go nam
F5          G5           F5         G5
Marność nad marnościami, proszę towarzyszy
F5         G5          F5       G5
Jeden dużo gada, drugi milczy w ciszy

[interlude]
C5 G5 D5 G5
C5 G5 D5 G5
F5 G5 F5 G5
F5 G5 F5 G5
C5 G5 C5 G5
C5 G5 C5 G5
F5 G5 F5 G5
F5 G5 F5 G5

[chorus]
B5   F5   G5    
Hej, hej, poznaj swój raj
B5   F5   G5  
Hej, hej, sprzedaj go nam
F5          G5           F5         G5
Marność nad marnościami, proszę towarzyszy
F5         G5          F5       G5
Jeden dużo gada, drugi milczy w ciszy

[verse 3]
C5        G5           D5    G5
Kto ufa bogactwu swemu może upadnie
C5       G5       D5         G5
Burza szaleje, bezbożny jest na dnie
F5          G5            F5            G5
Katecheta w przerwach obmacuje chłopców skrycie
F5         G5           F5       G5
Pierwszą komunię trzeba opić należycie

[verse 4]
C5   G5   C5          G5
Hej, hej, poznaj swój raj
C5   G5   C5         G5
Hej, hej, posprzątaj tam
F5         G5      F5          G5
Rozpierdoliliście ulice w moim mieście
F5           G5       F5        G5
Chcecie mnie wieszać, to mnie powieście

[chorus]
B5   F5   G5    
Hej, hej, poznaj swój raj
B5   F5   G5  
Hej, hej, sprzedaj go nam
F5          G5           F5         G5
Marność nad marnościami, proszę towarzyszy
F5         G5          F5       G5
Jeden dużo gada, drugi milczy w ciszy

[interlude]
C5 G5 D5 G5
C5 G5 D5 G5
F5 G5 F5 G5
F5 G5 F5 G5
C5 G5 C5 G5
C5 G5 C5 G5
F5 G5 F5 G5
F5 G5 F5 G5

[chorus]
B5   F5   G5    
Hej, hej, poznaj swój raj
B5   F5   G5  
Hej, hej, sprzedaj go nam
F5          G5           F5         G5
Marność nad marnościami, proszę towarzyszy
F5         G5          F5       G5
Jeden dużo gada, drugi milczy w ciszy

[verse 5]
C5            G5         D5        G5
Zlew ma to do siebie, że wiele się nie wie
C5           G5        D5            G5
Sprawiedliwy ponoć się nigdy nie zachwieje
F5             G5         F5         G5
Siedem kul dla zdrajcy, donosił na Polaków
F5           G5        F5     G5
Kto rozróżni skinów od dzieci kwiatów

[verse 6]
C5   G5   C5          G5
Hej, hej  poznaj swój raj
C5   G5  C5         G5
Hej, hej posprzątaj tam
F5         G5      F5          G5
Rozpierdoliliście ulice w moim mieście
F5          G5     F5         G5
Macie się wynosić, więc się wynieście

[chorus]
B5   F5   G5    
Hej, hej, poznaj swój raj
B5   F5   G5  
Hej, hej, sprzedaj go nam
F5          G5           F5         G5
Marność nad marnościami, proszę towarzyszy
F5         G5          F5       G5
Jeden dużo gada, drugi milczy w ciszy

[interlude]
C5 G5 D5 G5
C5 G5 D5 G5
F5 G5 F5 G5
F5 G5 F5 G5
C5 G5 C5 G5
C5 G5 C5 G5
F5 G5 F5 G5
F5 G5 F5 G5

[outro]
e|----------------------------------------------|
B|--4-3---3--------------3-4-3---3--------------|
G|------5---5-3-5-3-2-0--------5---5-3-5-3-2-0--|
D|----------------------------------------------|
A|----------------------------------------------|
E|----------------------------------------------|

e|----------------------------------------------|
B|----------------------------------------------|
G|--0---0-2-3--0-2-0---0--0---0-2-3--0-2-0---0--|
D|----3--------------3------3--------------3----|
A|----------------------------------------------|
E|----------------------------------------------|


enjoy!
Добавлено: 10.05.2016
Другие материалы по этой песне:
  • Аккорды и текст

Страница создана 10.05.2016
http://primanota.ru/kult/poznaj-swoj-raj-chords.htm
Привет, Гость.
Предлагаем пройти революционный курс по гитаре.
Подарок от PrimaNota.Ru, забирай!