PrimaNota.ru - самый крупный в мире бесплатный архив песенных текстов, аккордов, табулатур и нот


Kult - To Nie Jest Kraj Moich Snów - аккорды и текст, видео

Регистрация Запомнить меня
Войти через:  Facebook Google Twitter Vk Yandex Mail.ru

Kult - To Nie Jest Kraj Moich Snów - аккорды и текст, видео

Печатать
Просмотров: 66
Авторы текста: Kazik Staszewski
To Nie Jest Kraj Moich Snów
Kult
Kult - To nie jest kraj moich snów
Tabbed by: damienos

Tuning: Standard


[intro]
    Cm             D#              F                Cm
e|------------------------------------------------------------------|
B|--8----8--8------8-8----8--8-----8--8----11-10------------11------|
G|----10-------10------10------10-------10-------10------10----10---|
D|--------------------------------------------------10--------------|
A|------------------------------------------------------------------|
E|------------------------------------------------------------------|
    Cm             D#              F                Cm
e|------------------------------------------------------------------|
B|--8----8--8------8-8----8--8-----8--8-10-11-10--------------------|
G|----10-------10------10------10----------------10------10-10-10---|
D|--------------------------------------------------10--------------|
A|------------------------------------------------------------------|
E|------------------------------------------------------------------|
    Cm             D#              F                Cm
e|------------------------------------------------------------------|
B|--8----8--8------8-8----8--8-----8--8-10-11-10--------------------|
G|----10-------10------10------10----------------10------10-10-10---|
D|--------------------------------------------------10--------------|
A|------------------------------------------------------------------|
E|------------------------------------------------------------------|
    Cm             D#              F                Cm
e|------------------------------------------------------------------|
B|--8----8--8------8-8----8--8-----8--8----11-10--------------------|
G|----10-------10------10------10-------10-------10-----------------|
D|--------------------------------------------------10--------------|
A|------------------------------------------------------------------|
E|------------------------------------------------------------------|

[verse 1]
Cm              D#
Powiem tyle, co wiem
F               Cm
Powiem tyle, co mam
Cm             D#
O tym, co tu widziałem sam
  F               Cm
A co słyszałem od innych

[verse 2]
Cm           D#
Może tyle co widzę
  F               Cm
I może tyle, co usłyszeć się da
Cm              
To nie mój statek
   D#
To nie mój dom
  F                Cm
O którym śniłem niejeden raz

[interlude]
    Cm            D#               F                Cm
e|-----------------------------------------------------------------|
B|--8----8-8-8----8-8----8-8-8-----8--8-10-11-10-------------------|
G|----10-------10-----10-------10----------------10------10-10-10--|
D|--------------------------------------------------10-------------|
A|-----------------------------------------------------------------|
E|-----------------------------------------------------------------|
    Cm            D#               F                Cm
e|-----------------------------------------------------------------|
B|--8----8-8-8----8-8----8-8-8-----8--8----11-10-------------------|
G|----10-------10-----10-------10-------10-------10----------------|
D|--------------------------------------------------10-------------|
A|-----------------------------------------------------------------|
E|-----------------------------------------------------------------|

[chorus]
Cm          F         Cm      F
To nie jest dom moich snów!
Cm          F         Cm      F
To nie jest dom moich snów!

[solo]
Dm  G
Dm  G
Dm  G
Dm  G

[chorus]
Cm          F         Cm      F
To nie jest dom moich snów, o nie!
Cm          F         Cm      F
To nie jest dom moich snów!

[verse 3]
 Cm                D#
Anioły wyszły z więzienia
  F                Cm
A wolność należy doceniać
 Cm             D#
Ułomne czasy, kalekie
F                  Cm
Tylko choroba jest lekiem

[interlude]
    Cm            D#               F                Cm
e|-----------------------------------------------------------------|
B|--8----8-8-8----8-8----8-8-8-----8--8-10-11-10-------------------|
G|----10-------10-----10-------10----------------10------10-10-10--|
D|--------------------------------------------------10-------------|
A|-----------------------------------------------------------------|
E|-----------------------------------------------------------------|
    Cm            D#               F                Cm
e|-----------------------------------------------------------------|
B|--8----8-8-8----8-8----8-8-8-----8--8----11-10-------------------|
G|----10-------10-----10-------10-------10-------10----------------|
D|--------------------------------------------------10-------------|
A|-----------------------------------------------------------------|
E|-----------------------------------------------------------------|

[verse 4]
Cm                   D#
Tylko jest lekiem choroba
    F                Cm
Czy gruzy się mogą podobać?
Cm           D#
Może mało co wiem
F                  Cm
Dobro zwycięża się złem

[chorus]
Cm          F         Cm      F
To nie jest dom moich snów, o nie!
Cm          F         Cm      F
To nie jest dom moich snów!

[chorus]
Dm          G         Dm      G
To nie jest dom moich snów!
Dm          G         Dm      G
To nie jest dom moich snów!

[solo]
Dm  G
Dm  G
Dm  G
Dm  G

[chorus]
Cm          F         Cm      F
To nie jest dom moich snów!
Cm          F         Cm      F
To nie jest dom moich snów!

[verse 4]
  Cm                 D#
I nie ma tu nic do dodania
   F                  Cm
Piosenka ma służyć do grania
Cm                 D#
Powiem Ci tyle, co wiem
   F                   Cm
Piosenka ta nie ma przesłania

[chorus]
Cm          F         Cm      F
To nie jest dom moich snów!
Cm          F         Cm      F
To nie jest dom moich snów!

[outro]
Bb D# Cm D
D# Cm Cm D
Bb D# Cm D
D# Cm Cm D


enjoy!
Добавлено: 10.05.2016
Другие материалы по этой песне:
  • Аккорды и текст

Страница создана 10.05.2016
http://primanota.ru/kult/to-nie-jest-kraj-moich-snow-chords.htm
Привет, Гость.
Предлагаем пройти революционный курс по гитаре.
Подарок от PrimaNota.Ru, забирай!