PrimaNota.ru - самый крупный в мире бесплатный архив песенных текстов, аккордов, табулатур и нот


Кино, Виктор Цой - Спокойная ночь - аккорды и текст, таба, видео

Регистрация Запомнить меня
Войти через:  Facebook Google Twitter Vk Yandex Mail.ru

Кино, Виктор Цой - Спокойная ночь - аккорды и текст, таба, видео

Печатать
Просмотров: 6738
Спокойная ночь
Кино, Виктор Цой
Спокойная ночь 
Riff 1

E||--------------------------------|-----------------------------------------|
B||--------------------------------|-----------------------------------------|
G||--------------------------0--0--|-0---------------------------------------|
D||--------------------------------|---------------------------0--0—-0—-0—-0-|
A||--0--0--0--3--3--3--3--3--------|---3--3--3--3--3--2--2--2----------------|
E||--------------------------------|-----------------------------------------|
                              
----------------------------||
----------------------------||
----------------------------||
-0--0--0--------------------||
---------3----2--3--3-------||
----------------------------||

Riff 2

e|----------------------------|--------------------------------------------|----------------------------------------------------------------------|
h|----------------------------|--------------------------------------------|----------------------------------------------------------------------|
g|------------------------0-0-|-0-------------------------------------2----|----------------------------------------------------------------------|
d|----------------------------|--------------------------0--0—-0--0—--0—-0-|-0--------------------------------------------------------------------|
a|-0--0--0--3--3--3--3--3-----|---3--3--3--3--3--2--2--2------------2------|---2--2--2--2--2----0--0--0—-2----0--2--0-----0--0--0—-3------0--3—-2-|
e|----------------------------|--------------------------------------------|----------------------------------------------------------------------|

Riff 3

E||--------------------------------|--------------------------------------------|
B||--------------------------------|--0---------0-------------------------------|
G||--------------------------0-(0)-|-----0------0-------------------------------|
D||--------------------------------|--------0---0-------------------------------|
A||-0--0--0--3--3--3--3--3---------|------------x--3-------3--3-----2-------2—2-|
E||--------------------------------|------------1-----1--1--------0---0--0------|
---
E||---------------------------------|-----------------------------------------------|--------------
B||---------------------------------|-----------------------------------------------|--------------
G||------------------------0---0—-0-|--------------------------------------0---0--0-|--------------
D||---------------------------------|-----------------------------------------------|--------------
A||-0--0--0--3--3--3--3--3----------|-3--3--3--3--3---------3--3--3--3--3-----------|--3--2--3--2--
E||---------------------------------|---------------1--1--1-------------------------|--------------

Interlude:

--------------------------------------||
--------------------------------0-----||
-------------------------0-(0)----0---||
------------------------------------0-||
-0--0--0--3--3--3--3--3---------------||
--------------------------------------||

Main Solo:  5:01

e|------3--1-0-0-------------3-|------3------------------------------3-1-0--|------3-0--1—0-0-------------3-|------3----------------------------0-----|
h|----------------0-1-3--0-1---|---------1--3--0--0-1-3-3-1-0--0-1-3--------|------------------0-1-3--0-1---|---------1-3-0--0-1-3-3-1-0--0-1-3---3-0-|
g|---2-------------------------|---2----------------------------------------|---2---------------------------|---2-------------------------------------|
d|-3---------------------------|-3------------------------------------------|-3-----------------------------|-3---------------------------------------|
a|-----------------------------|--------------------------------------------|-------------------------------|-----------------------------------------|
e|-----------------------------|--------------------------------------------|-------------------------------|-----------------------------------------|

e|----5---15---13--12---------------10-|-------15---------15--------------|-------10-10-8-7--7-8-10-15-13-12-|-------15--13--12------------10-------12-|
h|-6-------------------12----12--13----|12--13---------10-----13---15--12—|-12-13----------------------------|----10------------12--12-13-----12-13----|
g|-------------------------------------|------------10--------------------|----------------------------------|-10--------------------------------------|
d|-------------------------------------|----------------------------------|----------------------------------|-----------------------------------------|
a|-------------------------------------|----------------------------------|----------------------------------|-----------------------------------------|
e|-------------------------------------|----------------------------------|----------------------------------|-----------------------------------------|

-------15-----------------------------||
----10-----13--15--12--12-(12)--------||
-10-----------------------------------||
--------------------------------------||
--------------------------------------||
--------------------------------------||



/Am Am7 G Dm Dm7 Dm6/

    Am            Am7               G  Gadd9
  Крыши домов дрожат под тяжестью дней,
     Dm          Dm7   Am        Am7
  Небесный пастух   пасет облака,
   Am               Am7           G  Gadd9
  Город стреляет в ночь дробью огней,
      Dm         Dm7     Am          Am7
  Но ночь сильней,  ее власть велика.

      F                 Em
     Тем, кто ложится спать -
                  Am Am7
     Спокойного сна.
  F C           Am  Am7
     Спокойная ночь.
      F                 Em
     Тем, кто ложится спать -
                  Am Am7
     Спокойного сна.
  F C           Am  /Am Am7 G Dm Dm7 Dm6/
     Спокойная ночь.

  Я ждал это время, и вот это время пришло,
  Те, кто молчал,  перестали молчать.
  Те, кому нечего ждать, садятся в седло,
  Их не догнать, уже не догнать.

     Припев

  Соседи приходят, им слышится стук копыт,
  Мешает уснуть,  тревожит их сон.
  Те, кому нечего ждать, отправляются в путь
  Те, кто спасен,  те, кто спасен.

     Припев

Song structure:

Intro: Riff 1 – x4
Verse: Riff 2 – x2
Chorus: Riff 3 – x2
Intro: Riff 1 – x2
Verse: Riff 2 – x1
       Interlude – x1
       Riff 2 – x1
Chorus: Riff 3 – x2
Verse: Riff 2 – x1 (with solo 1 in background)
       Interlude   (with solo 1 in background)
       Riff 2 – x1 (with solo 1 in background)
Chorus: Riff 3 – x2
Main Solo (with Chorus in background)
Добавлено: 13.07.2012
Другие материалы по этой песне:

Страница создана 04.03.2012
http://primanota.ru/kino-2/spokoinaya-noch-chords.htm
Привет, Гость.
Предлагаем пройти революционный курс по гитаре.
Подарок от PrimaNota.Ru, забирай!