PrimaNota.ru - самый крупный в мире бесплатный архив песенных текстов, аккордов, табулатур и нот


Кино, Виктор Цой - Звезда по имени "Солнце" - аккорды и текст, видео

Регистрация Запомнить меня
Войти через:  Facebook Google Twitter Vk Yandex Mail.ru

Кино, Виктор Цой - Звезда по имени "Солнце" - аккорды и текст, видео

Печатать
Просмотров: 3034
Звезда по имени "Солнце"
Кино, Виктор Цой
Intro: Dm

E||--------------------8--------------------8----------------------8-----------------------8-||
B||-----6---5---6----------6---5---6------------6---5---6-------------6---5---6--------------||
G||------------------------------------------------------------------------------------------||
D||------------------------------------------------------------------------------------------||
A||------------------------------------------------------------------------------------------||
E||------------------------------------------------------------------------------------------||

Am

            Am
Beliy sneg,   seriy led
           C
Na rastreskavsheisya zemle
      Dm
Odeyalom loskutnim na ney
   G
Gorod v dorozhnoi petle
           Am
A nad gorodom plivut oblaka
        C
Zakrivaya nebesni svet
           Dm
A nad gorodom zheltiy dim
   G
Gorodu dve tisyachi let
   Dm                                                Am
Prozhitih pod svetom zvezdi po imeni solnce

E||--------------------8--------------------8----------------------8-----------------------8-||
B||-----6---5---6----------6---5---6------------6---5---6-------------6---5---6--------------||
G||------------------------------------------------------------------------------------------||
D||------------------------------------------------------------------------------------------||
A||------------------------------------------------------------------------------------------||
E||------------------------------------------------------------------------------------------||

etc.
I dve tisyachi let voyna
Voyna bez osobih prichin
Voyna delo molodih
Lekarstvo protiv morshin
Krasnaya, krasnaya krov'
Cherez chas uzhe prosto zemlya
Cherez dva na ney sveti i trava
Cherez tri ona snova zhiva
I sogreta luchami zvezdi po imeni solnce

I mi znaem chto tak bilo vsegda
Chto sud'boy bolshe lybim
Kto zhivet po zakonam drugim
I komu umirat' molodim
On ne pomnit slova da i slova net
On ne pomnit ni chinov ni imen
I sposoben dotyanutsya do zvezd
Ne shitaya chto eto son
I upast' opalennim zvezdoy po imeni solnce

Coda = Intro
Добавлено: 30.03.2012
Другие материалы по этой песне:

Страница создана 23.02.2012
http://primanota.ru/kino-2/zvezda-po-imeni-solnce-chords.htm
Привет, Гость.
Предлагаем пройти революционный курс по гитаре.
Подарок от PrimaNota.Ru, забирай!