PrimaNota.ru - самый крупный в мире бесплатный архив песенных текстов, аккордов, табулатур и нот


Killing Joke - Feast Of Blaze - текст песни, таба, видео

Регистрация Запомнить меня
Войти через:  Facebook Google Twitter Vk Yandex Mail.ru

Killing Joke - Feast Of Blaze - текст песни, таба, видео

Печатать
Просмотров: 125
FEAST OF BLAZE. Album : Fire Dances (1983)

VERSES.

RIFF 1. Let ring. To make it easier to play, keep a barred chord (F-7; A-7; D-7) with 
index.
..................................X2 (X1 later in the song)
D-----10-10------10---8---8---------|
A------7--7-----7-7---7---7---7-----|
F----7--------7-----------------7---|
C--0--------0-------0---0---0-----0-|
G-----------------------------------|
D-----------------------------------|

RIFF 2. Let ring...
..................................X2 (X1 later...)
D----------------------10---8---8--10--8-|
A--9^10-10-10-10-10-10-10--10--10--10-10-|
F--0--0--0--0--0--0--0----0---0---0------|
C----------------------------------------|
G----------------------------------------|
D----------------------------------------|

CHORUS. Let ring... (the sound seems more clear (?)).
G-2:second finger; C-2:third; C-1:index; F-3:small finger.

^^^^^=slight tremolo with the fretting hand
D------------------------------------------|
A------------------------------------------|
F-----------------------------------3^^^^--|
C-----2-----2-----2-----2-----1-----1------|
G--------2-----------2-----2-----2-(2)-----|
D--0-----------0---------------------------|

BREAK . Let ring. (barred chord on C-6, F-6, A-6, D-6 with the index).

D---------------8---8---8-----6------------------------------------|
A---------------6---6---6-----6---9-9-9-9-9-9-9-9-------7-7--(7-7)-|
F-6-6-6-6-6-6-6---6---6---6-6---6-6-6-6-6-6-6-6-6------------------|
C-6-6-6-6-6-6-6---6---6---6-6---6-6-6-6-6-6-6-6-6--3^4--4-4--(4-4)-|
G------------------------------------------------------------------|
D------------------------------------------------------------------|
Добавлено: 02.07.2012
Другие материалы по этой песне:
  • Аккорды и текст

Страница создана 03.05.2012
http://primanota.ru/killing-joke/feast-of-blaze-chords.htm
Привет, Гость.
Предлагаем пройти революционный курс по гитаре.
Подарок от PrimaNota.Ru, забирай!