PrimaNota.ru - самый крупный в мире бесплатный архив песенных текстов, аккордов, табулатур и нот


Killing Joke - Ghosts Of Ladbroke Grove - бас-таба, видео

Регистрация Запомнить меня
Войти через:  Facebook Google Twitter Vk Yandex Mail.ru

Killing Joke - Ghosts Of Ladbroke Grove - бас-таба, видео

Печатать
Просмотров: 156
-------------------------------------------------------------------------------
			     Ghosts of Ladbrook Grove - Killing Joke
-------------------------------------------------------------------------------

Tabbed By : ctpunk
e-mail: 

Tuning:

G|---------------------------------------------------------------------------|
D|---------------------7-7---------------------------------------------------|
A|-7--10--7--10--7-----------7\----------------------------------------------|
E|---------------------------------------------------------------------------|

sounds like he plays a slight variation too..

G|---------------------------------------------------------------------------|
D|---------------------7-7---------------------------------------------------|
A|-7--10--7--10--10----------7\----------------------------------------------|
E|---------------------------------------------------------------------------|




| /  slide up
| \  slide down
| h  hammer-on
| p  pull-off
| ~  vibrato
| +  harmonic
| x  Mute note
===============================================================================
Добавлено: 10.06.2012
Другие материалы по этой песне:
  • Аккорды и текст

Страница создана 10.06.2012
http://primanota.ru/killing-joke/ghosts-of-ladbroke-grove-chords.htm
Привет, Гость.
Предлагаем пройти революционный курс по гитаре.
Подарок от PrimaNota.Ru, забирай!