PrimaNota.ru - самый крупный в мире бесплатный архив песенных текстов, аккордов, табулатур и нот


Killing Joke - Blood On Your Hands - таба, видео

Регистрация Запомнить меня
Войти через:  Facebook Google Twitter Vk Yandex Mail.ru

Killing Joke - Blood On Your Hands - таба, видео

Печатать
Просмотров: 176
BLOOD ON YOUR HANDS. Album : Killing Joke 2003

RIFF 1 / INTRO / VERSES. Low D-4 notes = palm-muted, let ring low D-(4) (1st and 10th).

D------------------------------------------------------------|
A------------------------------------------------------------|
F----4-----4-------4-----5---4-----4-----4--------4--4--5-4--|
C------------------------------------------------------------|
G------------------------------------------------------------|
D-(4)--4-4---4-4-4---4-4---4----(4)--4-4----4-4-4------------|

CHORUS 1. Move your index from low D-4 to F-4. Let ring…
                                        / Another way to play it. Let ring…
D------0--0---0----0-------/------0--0---0----0--------|
A------0--0---0----0--3----/------0--0---0----0--3-----|
F------4--4---4----4--2--2-/-8--8-8--8-8-8--8-8--2--2--|
C-6--6------6----6----0--2-/-6--6------6----6----0--2--|
G-6--6------6----6-------0-/-6--6------6----6-------0--|
D-4------------------------/---------------------------|

KNOCKS.

D-----------------|
A-----------------|
F-4-4--4--4--4-4--|
C-6-6--6--6--6-6--|
G-6-6--6--6--6-6--|
D-----------------|

CHORUS 2 & 3. Let ring… Notes ( ) = played in last chorus.

D------0--0--(2--2-2)-------|
A------0--0---3--3-3--------|
F------4--4---2--2-2--2--2--|
C-6--6------6-0--0-0--2--2--|
G-6--6------6---------0--0--|
D-4-------------------------|

BREAK. Let ring… Play the 4th first low D-4 notes with the edge of your pick close to 
bridge.

D------------------------------|
A------------------------------|
F------------------------------|
C------------------------------|
G-------------------4----------|
D-4-4-4-4-4-4-0^2^4---4-4-4-4--|
Добавлено: 11.06.2012
Другие материалы по этой песне:
  • Аккорды и текст

Страница создана 11.06.2012
http://primanota.ru/killing-joke/blood-on-your-hands-chords.htm
Привет, Гость.
Предлагаем пройти революционный курс по гитаре.
Подарок от PrimaNota.Ru, забирай!