PrimaNota.ru - самый крупный в мире бесплатный архив песенных текстов, аккордов, табулатур и нот


Killing Joke - Chessboards - текст песни, таба, видео

Регистрация Запомнить меня
Войти через:  Facebook Google Twitter Vk Yandex Mail.ru

Killing Joke - Chessboards - текст песни, таба, видео

Печатать
Просмотров: 194
Уроки эстрадного вокала в Санкт-Петербурге
CHESSBOARDS Part. Album: Brighter Than a Thousand Suns (1986)

INTRO Let ring

D----------------------------0-------|
A--7-----7--9-----9--7----------7----|
F--7--7--------7-------7----------7--|
C--0----------------------0----------|
G------------------------------------|
D------------------------------------|

MAIN RIFF/VERSES

D-------------------------------------------------------------------|
A-------------------------------------------------------0---0--0--0-|
F-------------------------------------------------------9---9--9--9-|
C-------------------------------------------------------9---9--9--9-|
G-11-----9-11-------11-----11---13---11------9-11-------7---7--7--7-|
D-----11------0-0-0----0-0----0----0----0-11------0-0-0-------------|


CHORUS Here's what i've found, not sure it's accurate...

D----------------------------------------------0-------0------|
A-------------------------------------------------------------|
F--0---0---------14------14-------10--10----10------10-----10-|
C-12--12------12------12------12--10--10--10-----10-----10----|
G-10--10---10------10-------10-----8---8----------------------|
D-------------------------------------------------------------|

RIFF1/BREAK Let ring (A-12 & D-12 notes with little finger/barred)

D----12--12--------------------|
A--12----12--------------------|
F---------------9------9-----9-|
C-----------------10-----10----|
G------------------------------|
D------------------------------|

RIFF 2/BREAK Let ring

D--------------------------------------------|
A------------------9---10------------10----9-|
F------11-11----11---11---11-11----11----11--|
C----11---11--11---11-----11-11--11----11----|
G--9-------9---------------9--9--------------|
D--------------------------------------------|

D-------------------------------------------------|
A--------------9-------------------10----10-------|
F----11-----11-------11----11----11-----11---11---|
C----11--11-------11-------11--11-----11-------11-|
G-9--9-----------9-------9--9---------------------|
D-------------------------------------------------|
Добавлено: 01.03.2012
Другие материалы по этой песне:
  • Аккорды и текст

Страница создана 01.03.2012
http://primanota.ru/killing-joke/chessboards-chords.htm
Привет, Гость.
Предлагаем пройти революционный курс по гитаре.
Подарок от PrimaNota.Ru, забирай!