PrimaNota.ru - самый крупный в мире бесплатный архив песенных текстов, аккордов, табулатур и нот


Keaton Henson - Friends - таба, видео

Регистрация Запомнить меня
Войти через:  Facebook Google Twitter Vk Yandex Mail.ru

Keaton Henson - Friends - таба, видео

Печатать
Просмотров: 145
First tab, a tad incomplete in places, let me know of any improvements please.

CAPO 5

e|-------------------------------------------------------------------------|
B|-------------------------------------------------------------------------|
G|-------------------------------------------------------------------------|
D|-------------------------------------------------------------------------|
A|----3--3--3--3--3--5--3-----3----3----|--3-3-3-3-------------------------|
E|--0--0--1--1--5--5--5--5--3---3-0--x2-|-0-0-1-1--------------------------|


e|-------------------------------------------------------------------------|
B|-------------------------------------------------------------------------|
G|-------------------------------------------------------------------------|
D|-------------------------------------------------------------------------|
A|----7-7-7-7-5-5-3-3---|---3-3-3-3-3-3-3-3--------------------------------|
E|---5-5-5-5-3-3-1-1-x3-|--0-0-1-1-5-5-5-5---x2----------------------------|

e|-------------------------------------------------------------------------|
B|-------------------------------------------------------------------------|
G|-------------------------------------------------------------------------|
D|-----------------------------------|-------------|-----------------------|
A|---8-3-8-3-5-3-5-3-0-3-0-3-0-3-0-3-|-3-3-3-3-----|-----------------------|
E|-----------------------------------|-3-5-0-1---til end-------------------|
Добавлено: 01.07.2013
Другие материалы по этой песне:
  • Аккорды и текст

Страница создана 01.07.2013
http://primanota.ru/keaton-henson/friends-chords.htm
Привет, Гость.
Предлагаем пройти революционный курс по гитаре.
Подарок от PrimaNota.Ru, забирай!