PrimaNota.ru - самый крупный в мире бесплатный архив песенных текстов, аккордов, табулатур и нот


Keaton Henson - Sweetheart What Have You Done To Us - таба, видео

Регистрация Запомнить меня
Войти через:  Facebook Google Twitter Vk Yandex Mail.ru

Keaton Henson - Sweetheart What Have You Done To Us - таба, видео

Печатать
Просмотров: 406
Tabbed by Floor Demon

Standard tuning. Taken from the acoustic Secret Sessions performance:
http://youtu.be/JusvShSfRo8

Chords: 
Am: 12 12 10 X X X
Dm: X 12 12 10 X X X
C: X 10 10 9 X X X
Em: 7 7 5 X X X 
Em2: X 14 14 12 X X
F: 8 8 7 X X X
G: 10 10 9 X X X
Intro is same as first line below.

E|-------------------------------------------------------------------------------------------|
B|-------------------------------------------------------------------------------------------|
G|----------------------------10-----10-----9------9-----------------------------------------|
D|--9-----9-----10----10------12-----12-----10-----10----5----5---7---7----5----5----9----9--|
A|--10----10----12----12-----12-----12-----10-----10-----7----7---8---8----7----7----10---10-|
E|-10----10----12----12---------------------------------7----7---8---8----7----7---10----10--|
                 Sweetheart,                What have you done to us

E|--------------------------------------------------------------------------------------------|
B|--------------------------------------------------------------------------------------------|
G|----------------------------10----10---9-----9----------------------------------------------|
D|--9----9-----10-----10------12----12---10----10-----5----5----7----7----5----5----7----7----|
A|--10---10----12-----12-----12----12---10----10------7----7----8----8----7----7----8----7----|
E|-10---10----12-----12------------------------------7----7----8----8----7----7----8----8-----|
                    I turned             my back and it turned to dust, what have you done

E|--------------------------------------------------------------------------------------------|
B|--------------------------------------------------------------------------------------------|
G|--------------------------10-----10-----9-------9-------------------------------------------|
D|--9-----9-----10----10----12-----12-----10-----10---5----5----7----7----5----5----9------9--|
A|--10----10----12----12---12-----12-----10-----10----7----7----8----8----7----7----10----10--|
E|-10----10----12----12------------------------------7----7----8----8----7----7---10----10----|
               Oh please,        Just come here don't fight with me

E|----------------------------------------------------------------------------------------------|
B|----------------------------------------------------------------------------------------------|
G|-----------------------------10-----10-----9-------9------------------------------------------|
D|--9-----9-----10-----10------12-----12-----10-----10----5----5----7----7----5----5----7----7--|
A|--10----10----12-----12-----12-----12-----10-----10-----7----7----8----8----7----7----8----8--|
E|-10----10----12-----12---------------------------------7----7----8----8----7----7----8----8---|
                  I admit                  think you may have broken it      Will you admit

Bridging bit


E|-----------------------------------------------------------------------------------------------|
B|-----------------------------------------------------------------------------------------------|
G|-----------------------------------------9-----9-----12----12----10----10----------------------|
D|--5---5---7---7---9-----9----10----10----10----10----14----14----12----12----9----9----10---10-|
A|--7---7---8---8---10---10---12----12----10----10----14----14----12----12-----10---10---12---12-|
E|-7---7---8---8---10---10----12----12----------------------------------------10---10---12----12-|
     
Ah------------------------->

E|-------------------------------------|
B|-------------------------------------|
G|-------------------------------------|
D|---9------9-----7-----7-----7-----7-|
A|---10----10-----8-----8-----8-----8--|
E|-10----10-----8-----8-----8-----8----|

    Ah------------------------->



Rest of the song is played the same, he just strums the chords in You were the one 
who told me not to be so English line.



Chords:
Intro: G Am Dm C Em F Em G
 Am    Dm   C           Em       F     Em    G
Sweetheart what have you done to us?

   Am  Dm  C        Em             F    Em    F
I turned my back and it turned to dust, what have you done?

Am        Dm   C         Em             F     Em    G
Oh please, just come here, dont fight with me

Am        Dm   C        Em             F         Em    F
And I admit I think you may have broken it, will you admit?

Em F G Am C Em2 Dm G Am G F

 
If all you wanted was songs for you
Here goes, after all that you put me through
Heres one for you
 
And dont call me, lover
Its not enough
Its got to be tough, cynical stuff
Follow my words to the end of our love
 
You were the one who told me not to be, so English
 
Sweetheart, what have you done to our love?

Tabbed by Floor Demon
Добавлено: 12.09.2013
Другие материалы по этой песне:
  • Аккорды и текст

Страница создана 12.09.2013
http://primanota.ru/keaton-henson/sweetheart-what-have-you-done-to-us-chords.htm
Привет, Гость.
Предлагаем пройти революционный курс по гитаре.
Подарок от PrimaNota.Ru, забирай!