PrimaNota.ru - самый крупный в мире бесплатный архив песенных текстов, аккордов, табулатур и нот


Kataklysm - In Shadows & Dust - текст песни, таба, видео

Регистрация Запомнить меня
Войти через:  Facebook Google Twitter Vk Yandex Mail.ru

Kataklysm - In Shadows & Dust - текст песни, таба, видео

Печатать
Просмотров: 149
Tuning: 2.5 steps down

Keys:
 ___ - palm mute
 / \ - slide


INTRO:

|-------------------------------|     |----------------|
|-------------------------------|     |----------------|
|-------------------------------|     |----------------|
|-------------------------------|     |----------------|
|-2------3-----5---------3/6\5--|     |-2------3-----5-|
|-0--0-0-1-0-0-3-0-0-0-0-1/4\3--| 3x  |-0--0-0-1-0-0-3-|
     ___   ___   _______                   ___   ___


RIFF A:

|------------------------------------------|
|------------------------------------------|
|------------------------------------------|
|------------------------------------------|
|-2------------3--------5------------3/6\5-|
|-0-0000000000-1-000000-3-0000000000-1/4\3-| 3x
    __________   ______   __________

|-------------------------|
|-------------------------|
|-------------------------|
|-------------------------|
|-2------------3--------5-|
|-0-0000000000-1-000000-3-|
    __________   ______


RIFF B:

|--------------------------------|
|--------------------------------|
|--------------------------------|
|-2------5-----3-----------------|
|-2------5-----3---------6-5-6-5-|
|-0--0-0-3-0-0-1-0-0-0-0-4-3-4-3-| 8x
     ___   ___   _______________


RIFF Ca:
(Gtr 1)
|----------------------------------------------------------------------------|
|----------------------------------------------------------------------------|
|----------------------------------------------------------------------------|
|----------------------------------------------------------------3-6-6-3-6-6-|
|-----------------------------8--8--8----------------------------3-6-6-3-6-6-|
|-00000000000000000000000000-10-10-10-00000000000000000000000000-1-4-4-1-4-4-|
  __________________________          __________________________

(Gtr 2)
|----------------------------------------------------------------------------|
|----------------------------------------------------------------------------|
|----------------------------------------------------------------------------|
|-2--------------------------------------------------------------3-6-6-3-6-6-|
|-2---------------------------8--8--8-7--------------------------3-6-6-3-6-6-|
|-0--------------------------10-10-10-0--------------------------1-4-4-1-4-4-|

(Gtr 1 & 2)
|----------------------------------------------------------------------------|
|----------------------------------------------------------------------------|
|----------------------------------------------------------------------------|
|----------------------------------------------------------------3-6-6-3-6-6-|
|-----------------------------8--8--8----------------------------3-6-6-3-6-6-|
|-00000000000000000000000000-10-10-10-00000000000000000000000000-1-4-4-1-4-4-|
  __________________________          __________________________          3x


RIFF D:

|---------------------------------------------------------|
|---------------------------------------------------------|
|---------------------------------------------------------|
|-2-2--3-2-2--5-2-2--3-6--5-3-2-2--3-2-2--5-2-2--3-6--5-3-|
|-2-2--3-2-2--5-2-2--3-6--5-3-2-2--3-2-2--5-2-2--3-6--5-3-|
|-0-0--1-0-0--3-0-0--1-4--3-1-0-0--1-0-0--3-0-0--1-4--3-1-|

(Gtr 1)
|---------------------------------------------------------|
|---------------------------------------------------------|
|---------------------------------------------------------|
|-2-2--3-2-2--5-2-2--3-6--5-3-2-2--3-2-2--5-2-2--3-6--5-3-|
|-2-2--3-2-2--5-2-2--3-6--5-3-2-2--3-2-2--5-2-2--3-6--5-3-|
|-0-0--1-0-0--3-0-0--1-4--3-1-0-0--1-0-0--3-0-0--1-4--3-1-|

(Gtr 2)
|---------------------------------------------------------|
|---------------------------------------------------------|
|---------------------------------------------------------|
|-------------9---------------------------9---------------|
|---7~-8-7~-----7~--9-10--8-7-7~---8-7~-----7~--9-10--8-7-|
|---------------------------------------------------------|


RIFF E:

|--------------------------------|     |-----------------|
|--------------------------------|     |-----------------|
|--------------------------------|     |-----------------|
|-2-----3-2-----5-2-------6------|     |-2-----3-2-----5-|
|-2-2-2-3-2-2-2-5-2-2-2-3-6--5-3-|     |-2-2-2-3-2-2-2-5-|
|-0-0-0-1-0-0-0-3-0-0-0-1-4--3-1-| 3x  |-0-0-0-1-0-0-0-3-|
    ___     ___     _____    ___           ___     ___


RIFF A


RIFF Cb:

|----------------------------------------------------------------------------|
|----------------------------------------------------------------------------|
|----------------------------------------------------------------------------|
|----------------------------------------------------------------3-6-6-3-6-6-|
|-----------------------------8--8--8----------------------------3-6-6-3-6-6-|
|-00000000000000000000000000-10-10-10-00000000000000000000000000-1-4-4-1-4-4-|
  __________________________          __________________________          4x


OUTRO:

|----------|     |---|
|----------|     |---|
|----------|     |---|
|-2--5-8---|     |-2-|
|-2--5-8---|     |-2-|
|-0--3-6-0-| 9x  |-0-|
         _
Добавлено: 19.06.2012
Другие материалы по этой песне:

Страница создана 06.03.2012
http://primanota.ru/kataklysm/in-shadows-and-dust-chords.htm
Привет, Гость.
Предлагаем пройти революционный курс по гитаре.
Подарок от PrimaNota.Ru, забирай!