PrimaNota.ru - самый крупный в мире бесплатный архив песенных текстов, аккордов, табулатур и нот


Kataklysm - Resurrected - текст песни, таба, видео

Регистрация Запомнить меня
Войти через:  Facebook Google Twitter Vk Yandex Mail.ru

Kataklysm - Resurrected - текст песни, таба, видео

Печатать
Просмотров: 167
The resurrected. As played on the Serenity in Fire album by Kataklysm.

   This isn't the easiest way to play it, but its how its played Live and in the album. 
palm mutes that are displayed with a "*" are light palm mutes. the ones displayed with a 
are heavy palm mutes.)

Riff A repeat 3 times
                   9s10                                 10
(when you play the 10s12, even though you slide into the 12 pick it, to sound like it 
in the album.
b|-------------------------------------------------------------------------|
G|-------------------------------------------------------------------------|
D|-------------------------------------------------------------------------|
A|-------------------------------------------------------------------------|
E|-10-----9s10------9s10-------12-12--10-----9s10------9s10--------7---5---|
B|-12000010s12-000010s12-000000130130-12000010s12-000010s12-000000-5-0-3-0-|
PM   ****      ****      ******  *  *   ****      ****      ******   .   .

Riff a1

b|-------------------------------------------------------------------------|
G|-------------------------------------------------------------------------|
D|-------------------------------------------------------------------------|
A|-------------------------------------------------------------------------|
E|-10-----9s10------9s10-------12-12--10-----9s10------9s10--------7---5---|
B|-12000010s12-000010s12-000000130130-12000010s12-000010s12-000000-5-0-3---|
PM   ****      ****      ******  *  *   ****      ****      ******   .

Riff B

b|--------------------------------------------------------------|
G|--------------------------------------------------------------|
D|--------------------------------------------------------------|
A|--------------------------------------------------------------|
E|----------5----------5------3----------5----------2-3-5-3-2-0-|
B|-00000000-3-00000000-3-0000-1-00000000-3-00000000-------------|
PM ********   ********   ****   ********   ******** . . . . . .

b|--------------------------------------------------------------|
G|--------------------------------------------------------------|
D|--------------------------------------------------------------|
A|--------------------------------------------------------------|
E|----------5----------5------3----------5----------5-2-3-5-----|
B|-00000000-3-00000000-3-0000-1-00000000-3-00000000-3-----^-----|
PM ********   ********   ****   ********   ********   . . p.h

b|--------------------------------------------------------------|
G|--------------------------------------------------------------|
D|--------------------------------------------------------------|
A|--------------------------------------------------------------|
E|----------5----------5------3----------5----------2-3-5-3-2-0-|
B|-00000000-3-00000000-3-0000-1-00000000-3-00000000-------------|
PM ********   ********   ****   ********   ******** . . . . . .

b|--------------------------------------------------------------|
G|--------------------------------------------------------------|
D|--------------------------------------------------------------|
A|--------------------------------------------------------------|
E|----------5----------5------3----------5----------5-2-3-5-----|
B|-00000000-3-00000000-3-0000-1-00000000-3-00000000-3-----^-----|
PM ********   ********   ****   ********   ********   . . p.h

Riff C

b|----------------------------------------------------|
G|----------------------------------------------------|
D|----------------------------------------------------|
A|----------------------------------------------------|
E|----------------------------------------------------|
B|-000-000-332-222-222-532-653-000-000-332-222-222----|

b|----------------------------------------------------|
G|----------------------------------------------------|
D|----------------------------------------------------|
A|----------------------------------------------------|
E|----------------------------------------------------|
B|-000-000-332-222-222-532-653-000-000-332-222-222----|

fill 1

b|-----------|
G|-----------|
D|-----------|
A|-2-2--2-2--|
E|-2-2--2-2--|
B|-0-0--0-0--|

played 3 times
b|-------------------------------------------------------------------------|
G|-------------------------------------------------------------------------|
D|-------------------------------------------------------------------------|
A|-------------------------------------------------------------------------|
E|-10-----9s10------9s10-------12-12--10-----9s10------9s10--------7---5---|
B|-12000010s12-000010s12-000000130130-12000010s12-000010s12-000000-5-0-3-0-|
PM   ****      ****      ******  *  *   ****      ****      ******   .   .

Riff a1 once

b|-------------------------------------------------------------------------|
G|-------------------------------------------------------------------------|
D|-------------------------------------------------------------------------|
A|-------------------------------------------------------------------------|
E|-10-----9s10------9s10-------12-12--10-----9s10------9s10--------7---5---|
B|-12000010s12-000010s12-000000130130-12000010s12-000010s12-000000-5-0-3---|
PM   ****      ****      ******  *  *   ****      ****      ******   .


Riff B

b|--------------------------------------------------------------|
G|--------------------------------------------------------------|
D|--------------------------------------------------------------|
A|--------------------------------------------------------------|
E|----------5----------5------3----------5----------2-3-5-3-2-0-|
B|-00000000-3-00000000-3-0000-1-00000000-3-00000000-------------|
PM ********   ********   ****   ********   ******** . . . . . .

b|--------------------------------------------------------------|
G|--------------------------------------------------------------|
D|--------------------------------------------------------------|
A|--------------------------------------------------------------|
E|----------5----------5------3----------5----------5-2-3-5-----|
B|-00000000-3-00000000-3-0000-1-00000000-3-00000000-3-----^-----|
PM ********   ********   ****   ********   ********   . . p.h

b|--------------------------------------------------------------|
G|--------------------------------------------------------------|
D|--------------------------------------------------------------|
A|--------------------------------------------------------------|
E|----------5----------5------3----------5----------2-3-5-3-2-0-|
B|-00000000-3-00000000-3-0000-1-00000000-3-00000000-------------|
PM ********   ********   ****   ********   ******** . . . . . .

b|--------------------------------------------------------------|
G|--------------------------------------------------------------|
D|--------------------------------------------------------------|
A|--------------------------------------------------------------|
E|----------5----------5------3----------5----------5-2-3-5-----|
B|-00000000-3-00000000-3-0000-1-00000000-3-00000000-3-----^-----|
PM ********   ********   ****   ********   ********   . . p.h

Riff C

b|----------------------------------------------------|
G|----------------------------------------------------|
D|----------------------------------------------------|
A|----------------------------------------------------|
E|----------------------------------------------------|
B|-000-000-332-222-222-532-653-000-000-332-222-222----|
PM ... ... ... ... ... ... ... ... ... ... ... ...

b|----------------------------------------------------|
G|----------------------------------------------------|
D|----------------------------------------------------|
A|----------------------------------------------------|
E|----------------------------------------------------|
B|-000-000-332-222-222-532-653-000-000-332-222-222----|
PM ... ... ... ... ... ... ... ... ... ... ... ...

fill 1

b|-----------|
G|-----------|
D|-----------|
A|-2-2--2-2--|
E|-2-2--2-2--|
B|-0-0--0-0--|


Riff D

b|------------------------------------------|
G|------------------------------------------|
D|------------------------------------------|
A|------------------------------------------|
E|-2-2-5-4-4-4---------2-2-5-4-4-4----------|
B|-0-0-3-2-2-2-532-653-0-0-3-2-2-2-532-653--|
PM . . . . . . ... ... . . . . . . ... ...

b|------------------------------------------|
G|------------------------------------------|
D|------------------------------------------|
A|------------------------------------------|
E|-2-2-5-4-4-4---------2-2-5-4-4-4----------|
B|-0-0-3-2-2-2-532-653-0-0-3-2-2-2-532-653--|
PM . . . . . . ... ... . . . . . . ... ...

Riff d1


b|------------------------------------------|
G|------------------------------------------|
D|------------------------------------------|
A|------------------------------------------|
E|-2-2-5-4-4-4---------2-2-5-4-4-4----------|
B|-0-0-3-2-2-2-532-653-0-0-3-2-2-2-532-653--|
PM           * *** ***           * *** ***

b|------------------------------------------|
G|------------------------------------------|
D|------------------------------------------|
A|------------------------------------------|
E|-2-2-5-4-4-4---------2-2-5-4-4-4----------|
B|-0-0-3-2-2-2-532-653-0-0-3-2-2-2-532-653--|
PM           * *** ***           * *** ***

Riff e1

play 3 times
b|------------------------------------|
G|------------------------------------|
D|------------------------------------|
A|-55558------------55558-------------|
E|-77777----5555333-77777----5555333--|
B|------00003333111------00003333111--|
PM      ....             ....

play once

b|-------------------------------------|
G|-------------------------------------|
D|-------------------------------------|
A|-55558------------55558--------------|
E|-77777----5555333-77777----5----3----|
B|------00003333111------00003----1----|
PM      ....             ....

Riff E


play 4 times
b|------------------------------------|
G|------------------------------------|
D|------------------------------------|
A|-55558------------55558-------------|
E|-77777----5555333-77777----5555333--|
B|------00003333111------00003333111--|
PM      ....             ....


played 3 times
b|-------------------------------------------------------------------------|
G|-------------------------------------------------------------------------|
D|-------------------------------------------------------------------------|
A|-------------------------------------------------------------------------|
E|-10-----9s10------9s10-------12-12--10-----9s10------9s10--------7---5---|
B|-12000010s12-000010s12-000000130130-12000010s12-000010s12-000000-5-0-3-0-|
PM   ****      ****      ******  *  *   ****      ****      ******   .   .

Riff a1 once

b|-------------------------------------------------------------------------|
G|-------------------------------------------------------------------------|
D|-------------------------------------------------------------------------|
A|-------------------------------------------------------------------------|
E|-10-----9s10------9s10-------12-12--10-----9s10------9s10--------7---5---|
B|-12000010s12-000010s12-000000130130-12000010s12-000010s12-000000-5-0-3---|
PM   ****      ****      ******  *  *   ****      ****      ******   .


Riff C

b|----------------------------------------------------|
G|----------------------------------------------------|
D|----------------------------------------------------|
A|----------------------------------------------------|
E|----------------------------------------------------|
B|-000-000-332-222-222-532-653-000-000-332-222-222----|
PM ... ... ... ... ... ... ... ... ... ... ... ...

b|----------------------------------------------------|
G|----------------------------------------------------|
D|----------------------------------------------------|
A|----------------------------------------------------|
E|----------------------------------------------------|
B|-000-000-332-222-222-532-653-000-000-332-222-222----|
PM ... ... ... ... ... ... ... ... ... ... ... ...

fill 1

b|-----------|
G|-----------|
D|-----------|
A|-2-2--2-2--|
E|-2-2--2-2--|
B|-0-0--0-0--|


Riff D

b|------------------------------------------|
G|------------------------------------------|
D|------------------------------------------|
A|------------------------------------------|
E|-2-2-5-4-4-4---------2-2-5-4-4-4----------|
B|-0-0-3-2-2-2-532-653-0-0-3-2-2-2-532-653--|
PM . . . . . . ... ... . . . . . . ... ...

b|------------------------------------------|
G|------------------------------------------|
D|------------------------------------------|
A|------------------------------------------|
E|-2-2-5-4-4-4---------2-2-5-4-4-4----------|
B|-0-0-3-2-2-2-532-653-0-0-3-2-2-2-532-653--|
PM . . . . . . ... ... . . . . . . ... ...

Riff d1


b|------------------------------------------|
G|------------------------------------------|
D|------------------------------------------|
A|------------------------------------------|
E|-2-2-5-4-4-4---------2-2-5-4-4-4----------|
B|-0-0-3-2-2-2-532-653-0-0-3-2-2-2-532-653--|
PM           * *** ***           * *** ***

b|------------------------------------------|
G|------------------------------------------|
D|------------------------------------------|
A|------------------------------------------|
E|-2-2-5-4-4-4---------2-2-5-4-4-4----------|
B|-0-0-3-2-2-2-532-653-0-0-3-2-2-2-532-653--|
PM           * *** ***           * *** ***

Grand Finale:

b|----|
G|----|
D|----|
A|----|
E|-2--|
B|-0--|


There! Easy song, eh? Right after this im tabbing Tempation's Nest... so stay tuned.
Добавлено: 05.04.2012
Другие материалы по этой песне:

Страница создана 09.03.2012
http://primanota.ru/kataklysm/resurrected-chords.htm
Привет, Гость.
Предлагаем пройти революционный курс по гитаре.
Подарок от PrimaNota.Ru, забирай!