PrimaNota.ru - самый крупный в мире бесплатный архив песенных текстов, аккордов, табулатур и нот


Kataklysm - Road To Devastation - текст песни, таба, бас-таба, видео

Регистрация Запомнить меня
Войти через:  Facebook Google Twitter Vk Yandex Mail.ru

Kataklysm - Road To Devastation - текст песни, таба, бас-таба, видео

Печатать
Просмотров: 242
e|----------------------------------------------------|
B|---------------------------------12h13--12-10-12----|
G|-11-12-9---9h11h12-14-11h12h14----------------------|
D|----------------------------------------------------|
A|----------------------------------------------------|
E|----------------------------------------------------|

e|---------------------------------------------------------------------------|
B|-12-10-13-10---------------------------------------------------------------|
G|-------------12-11-9-12-11-9-7-9-7-----------------------------------------|
D|-----------------------------------10-9-12-10-9-7-10-9-7-------------------|
A|---------------------------------------------------------10-9/12---10-9-10-|
E|---------------------------------------------------------------------------|

e|----------------------------------------------------------------------|
B|----------------------------------------------------------------------|
G|----------------------------------------------------------------------|
D|---------------------------------------------9-------9-10----9-10-12--|
A|-9-10/12--10-7h10p9---7-9-10-9-10-12-9-10-12---10-12------12----------|
E|----------------------------------------------------------------------|

e|---------------------------------------------------------------------------|
B|---------------12-0-10-0-8-0-7-0-8-0-7-0-5-0-4-0-5-0-7-0-8-0-7-0-5-0-4-0-5-|
G|---------------------------------------------------------------------------|
D|-9-10-12-14-/--------------------------------------------------------------|
A|---------------------------------------------------------------------------|
E|---------------------------------------------------------------------------|

e|---------------------------------------------------------------------------|
B|-12-0-10-8-0-7-0-8-0-7-0-5-0-4-0-5-0-7-0-8-0-7-0-5-0-4-5---17///-----------|
G|---------------------------------------------------------------------------|
D|---------------------------------------------------------------------------|
A|---------------------------------------------------------------------------|
E|---------------------------------------------------------------------------|
                                                              tremelo pick
                 
e|----------------------14---------------------------------------------------|
B|-------------14-14-17----17-15-12-15-14-12----------14-12-10---------------|
G|-14-14-14-16-------------------------------14-12-11----------14-12-11-16---|
D|---------------------------------------------------------------------------|
A|---------------------------------------------------------------------------|
E|---------------------------------------------------------------------------|

This part is probably incorrect


e|--------------------------------------------------------------------------|
B|--------------------------------------------------------------------------|
G|-16-16-14-12-14-12-11-----19b21---7/9-9-9-9-12-12-12-12/1111111/14-14-14--|
D|----------------------14/-------------------------------------------------|
A|----------------------------------5/7-7-7-7/10-10-10-10/9-9-9-9/12-12-12--|
E|--------------------------------------------------------------------------|

e|--------------------------------------------------------------------------|
B|--------------------------------------------------------------------------|
G|-14/12-12-12-12/1111111/9-9-9-9-7-7-7-7-----------------------------------|
D|--------------------------------------------------------------------------|
A|-12/10-10-10-10/9-9-9-9/7-7-7-7/5-5-5-5-----------------------------------|
E|--------------------------------------------------------------------------|

Last part repeats, song fades
Добавлено: 22.06.2012
Другие материалы по этой песне:

Страница создана 21.02.2012
http://primanota.ru/kataklysm/road-to-devastation-chords.htm
Привет, Гость.
Предлагаем пройти революционный курс по гитаре.
Подарок от PrimaNota.Ru, забирай!