PrimaNota.ru - самый крупный в мире бесплатный архив песенных текстов, аккордов, табулатур и нот


Karnivool - Sleeping Satellite - таба, видео

Регистрация Запомнить меня
Войти через:  Facebook Google Twitter Vk Yandex Mail.ru

Karnivool - Sleeping Satellite - таба, видео

Печатать
Просмотров: 265
-------------------------------------------------------------------------------
                             SLEEPING SATELLITE - Karnivool
-------------------------------------------------------------------------------
Tabbed by: Daniel Drummond
Email: three_dollar_bil@hotmail.com

Tuning: Lower 3 strings are in drop B, higher 3 are standard.

      E  E  E  E  E   E  E  E  E  E   Q
E ||---------------------------------------|
B ||---------------------------------------|
G ||---------------------------------------|
B ||--------------5h--7-----------5h--7----|
F#||--x-----x--x---------x--x--x-----------|
B ||---------------------------------------|


                                                  x    x       x
  E  E  E  E   E  Q    E   E   E   E   E     Q    Q    E  Q    E  E  Q    E
------------------------------------------|----------------------------------|
------------------------------------------|----------------------------------|
------------------4-----------------------|---------------4-------4----------|
-----------5h--7-------5h--7h--9p--7p--5--|--4----0----0-------0-----2-------|
--x--x--x---------------------------------|----------------------------------|
------------------------------------------|----------------------------------|


  x    x                           AH
  Q    E  E  Q    E   E  E    E    Q
-------------------------------------------|
-------------------------------------------|
----------4-------0h--4~-4/--6----6+~------|
--0----2-----2-----------------------------|
-------------------------------------------|
-------------------------------------------|


  E  E  E  E  E   E  E  E  E  E   Q
---------------------------------------|
---------------------------------------|
---------------------------------------|
--------------5h--7-----------5h--7----|
--x-----x--x---------x--x--x-----------|
---------------------------------------|


                                                   x    x       x
  E  E  E  E   E  Q    E   E   E   E   E      Q    Q    E  Q    E  E  Q    E
-------------------------------------------|----------------------------------|
-------------------------------------------|----------------------------------|
------------------4------------------------|---------------4-------4----------|
-----------5h--7-------4h--5h--7h--4p--0h--|--2----0----0-------2-----2----2--|
--x--x--x----------------------------------|----------------------------------|
-------------------------------------------|----------------------------------|


  Q    E  E  E   E  E  E   E  E  Q
--------------------------------------|
-------------4/--5--5--5/--7--7--7----|
--------------------------------------|
--2----2--2--4/--5--5--5/--7--7--7----|
--------------------------------------|
--2----2--2---------------------------|


  E   E   E  E  E  E   E   E  E  E  E  E
------------------------------------------|
------------------------------------------|
--6p--4h--6--------6p--4h--6--------6-----|
----------------5-------------5--7-----7--|
------------------------------------------|
------------------------------------------|


  E   E   E  E  E  E  E  E   E   E  E  E
------------------------------------------|
------------------------------------------|
--6p--4h--6--------4-----6p--4h--6--------|
-------------0--5-------------------5--7--|
------------------------------------------|
------------------------------------------|


  E  E   E  E  E  Q     E  E   E  E  E
----------------------------------------|
----------------------------------------|
--6--4h--6-----4--9S----6--2S--4--2--6--|
----------------------------------------|
----------------------------------------|
----------------------------------------|


  E   E   E  E  E  E   E   E  E  E  E  E
------------------------------------------|
------------------------------------------|
--6p--4h--6--------6p--4h--6--------4-----|
----------------5-------------0--5-----5--|
------------------------------------------|
------------------------------------------|


  E   E   E  E  E  E  E  E   E   E  E  E     E   E   E  Q    Q    E  Q    Q
------------------------------------------|-------------5----4-------7---------|
------------------------------------------|-----------------------4-------5----|
--6p--4h--6--------6-----6p--4h--6--------|--6p--4h--6-------------------------|
-------------5--7-------------------5--7--|------------------------------------|
------------------------------------------|------------------------------------|
------------------------------------------|------------------------------------|


  E   E   E  E  E  E   E   E  E   E  E   E
--------------------------------------------|
--------------------------------------------|
--6p--4h--6--------6p--4h--6---------4h--6--|
----------------5-------------5h--7---------|
--------------------------------------------|
--------------------------------------------|


  E   E   E  E  E  E  E  E   E   E  E  E
------------------------------------------|
------------------------------------------|
--6p--4h--6--------4-----6p--4h--6-----6--|
-------------0--5-------------------5-----|
------------------------------------------|
------------------------------------------|


  E   E   E  E  E  E  E  E   E   E  E  E
------------------------------------------|
------------------------------------------|
--6p--4h--6--------6-----6p--4h--6-----6--|
-------------5--7-------------------------|
------------------------------------------|
------------------------------------------|


  E  Q    E  E   E  Q    E   E  Q
-------------------------------------|
--5--4-------5/--7--7----5/--7--7----|
----------4--------------------------|
-------------------------------------|
-------------------------------------|
-------------------------------------|


  E   E   E  E  E  E   E   E  E  E  E  E
------------------------------------------|
------------------------------------------|
--6p--4h--6--------6p--4h--6--------6-----|
----------------5-------------5--7--------|
------------------------------------------|
------------------------------------------|


  E   E   E  E  E  E  E  E   E   E  E  E
------------------------------------------|
------------------------------------------|
--6p--4h--6--------4-----6p--4h--6-----6--|
-------------0--5-------------------5-----|
------------------------------------------|
------------------------------------------|


  E   E   E  E  E  E  E  E   E   E  E  E
------------------------------------------|
------------------------------------------|
--6p--4h--6--------6-----6p--4h--6-----4--|
-------------5--7-------------------5-----|
------------------------------------------|
------------------------------------------|


                                        x   x  x
  E  Q    E  E   E  Q    E   E  Q       E   E  E  E  E  Q    E
-------------------------------------|------------5-----4-------|
--5--4-------5/--7--7----5/--7--7----|--------------------------|
----------4--------------------------|---------6----------------|
-------------------------------------|--5h--7-------------------|
-------------------------------------|--------------------------|
-------------------------------------|--------------------------|


  x   x  x                   x   x  x
  E   E  E  E  E  Q    E     E   E  E  E  E  Q    E
------------5-----4-------|------------5-----4-------|
--------------------------|--------------------------|
---------6----------------|---------6----------------|
--5h--7-------------------|--5h--7-------------------|
--------------------------|--------------------------|
--------------------------|--------------------------|


  x   x  x                   x   x  x
  E   E  E  E  E  Q    E     E   E  E  E  E  Q    E
------------5-----4-------|------------5-----4-------|
--------------------------|--------------------------|
---------6----------------|---------6----------------|
--5h--7-------------------|--5h--7-------------------|
--------------------------|--------------------------|
--------------------------|--------------------------|


  x   x  x
  E   E  E  E  E  Q    E     Q    Q    Q    Q       Q    Q    Q    Q
------------5-----4-------|----------------------|----------------------||
--------------------------|----------------------|----------------------||
---------6----------------|--2----2--------------|----------------------||
--5h--7-------------------|----------------------|--0----0--------------||
--------------------------|--3----3--------------|--0----0--------------||
--------------------------|----------------------|----------------------||


Duration Legend
---------------
W - whole
H - half
Q - quarter
E - 8th
S - 16th
T - 32nd
X - 64th
. - note dotted
|-n-|  - n-tuplets


************************************

| /   slide up
| \   slide down
| h   hammer-on
| p   pull-off
| ~   vibrato
| +   harmonic
| x   Mute note
| b   Bend
| pb  Pre-bend
| br  Bend release
| pbr Pre-bend release
| brb Bend release bend

************************************
Добавлено: 05.04.2012
Другие материалы по этой песне:

Страница создана 21.02.2012
http://primanota.ru/karnivool/sleeping-satellite-chords.htm
Привет, Гость.
Предлагаем пройти революционный курс по гитаре.
Подарок от PrimaNota.Ru, забирай!