PrimaNota.ru - самый крупный в мире бесплатный архив песенных текстов, аккордов, табулатур и нот


Karnivool - All I Know - текст песни, таба, бас-таба, видео

Регистрация Запомнить меня
Войти через:  Facebook Google Twitter Vk Yandex Mail.ru

Karnivool - All I Know - текст песни, таба, бас-таба, видео

Печатать
Просмотров: 211
Band: Karnivool
Song: All I Know
Album: Sound Awake (2009)
Tuning: B F# B G B E

Guitar : Distorted with reverb & delay

One of my favorites tracks of the new album...Not sure if this is the right tuning for 
song because Drew said that the band will use some different tunings than the one we're 
familiar with. Anyway, this tab it's not 100% but it's the best I can do.

Starts with the bass riff and then you have some volume swells.
E |-------------------------|
B |-------------------------|
G |--7*--------------7*-----|
B |---------5*--------------|
F#|-------------------------|
B |-------------------------|

Verse riff
E |--------------------------------------------------|
B |--------------------------------------------------|
G |-----------------------7-----------5-----------4--|
B |--5-5--5-5-8--5-5--5-5----5-5--5-5----5-5--5-5----|
F#|--------------------------------------------------|
B |--------------------------------------------------|
     . .  . .    . .  . .    . .  . .    . .  . .

Chorus riff
E |--------7------------------7--------------|
B |------8-8------10-7------8-8--10--7--8----|
G |--7/9------7/9-------7/9------------------|
B |------------------------------------------|
F#|------------------------------------------|
B |------------------------------------------|

(Also during the interlude there's a small section where you play the verse riff with 
clean channel, Drew actually is using his crunch channel on his peavey 5150 and he just 
down the volume knob to get a cleaner sound)

Interlude riff (it really blends into the mix and you can't hear that much stuff)
E |----------------|
B |--7~----10~--8~-|
G |----9~----------|
B |----------------|
F#|----------------|
B |----------------|

Solo riff
E |-------------------------------------------------|
B |--12~----12p13/10~----8--10/12~----12p13/10~-----|
G |-------------------------------------------------|
B |-------------------------------------------------|
F#|-------------------------------------------------|
B |-------------------------------------------------|


Heavy Part riff (listen to the song for the exact strum pattern)
E |-------------------------------|
B |-------------------------------|
G |-------------------------------|
B |--5-5--5--5-5--5--5-5-5\3-3----|
F#|--5-5--5--5-5--5--5-5-5\3-3----|
B |--5-5--5--5-5--5--5-5-5\3-3----|


Bridge riff (use clean and delay and don't play hard)
E |---------|
B |--10p8---|
G |---------|
B |---------|
F#|---------|
B |---------|

Back To Distortion (say once more, say it again...you know it:P)
E |------------------------|
B |------10p8-8p7-7p8------|
G |--9p7--------------7p9--|
B |------------------------|
F#|------------------------|
B |------------------------|

Ending riff (clean)
E |------------------7~------------|
B |-----7--8---7-----10~-----------|
G |--9-----------9---9~------------|
B |--------------------------------|
F#|--------------------------------|
B |--------------------------------|
Добавлено: 07.05.2012
Другие материалы по этой песне:

Страница создана 25.03.2012
http://primanota.ru/karnivool/all-i-know-chords.htm
Привет, Гость.
Предлагаем пройти революционный курс по гитаре.
Подарок от PrimaNota.Ru, забирай!