PrimaNota.ru - самый крупный в мире бесплатный архив песенных текстов, аккордов, табулатур и нот


Karnivool - Shutterspeed - текст песни, таба, видео

Регистрация Запомнить меня
Войти через:  Facebook Google Twitter Vk Yandex Mail.ru

Karnivool - Shutterspeed - текст песни, таба, видео

Печатать
Просмотров: 142
---------------------------------------------------------
                Shutterspeed - Karnivool
---------------------------------------------------------
Tabbed by: Kristyn Lee
Email: spot_the_village_loony_836@hotmail.com

Tuning: B F# B G B E

E |---------------------------------------------------|
B |---------------------------------------------------|
G |---------------------------------------------------|
B |---------------------------------------------------|
F#|---------------------------------------------------|
B |---2222222-2222222-2222222-222222-22-2-0-00-00-----|

forgive me for the timing. it's very tricky. I still can't play
it right. These notes are right though.

E |---------------------------------------------------|
B |---------------------------------------------------|
G |---------4-------------4-----------4----------4----|
B |---------------------------------------------------|
F#|--0h2222---2-222-0h222---22-0h2222---2-0h2222------|
B |--0h2222---2-222-0h222---22-0h2222---2-0h2222------|


E |---------------------------------------------------|
B |---------------4---7-------------------------------|
G |------------4--------------------------------------|
B |---------------------------------------------------|
F#|--0000-0-00--0---0---------------------------------|
B |--0000-0-00--0---0---------------------------------|

E |---------------------------------------------------|
B |-----------------------------------4---------------|
G |---------4-------------4----------------------4----|
B |---------------------------------------------------|
F#|--0h2222---2-222-0h222---22-0h2222---2-0h2222------|
B |--0h2222---2-222-0h222---22-0h2222---2-0h2222------|




E |---------------------------------------------------|
B |--------------------4h5p4--------------------------|
G |----------4---------------4h6p4--------------------|
B |---------------------------------------------------|
F#|--0h22222---2222-0---------------------------------|
B |--0h22222---2222-0---------------------------------|

Chorus
E |--------------------------------------------------|
B |--------------------------------------------------|
G |--------------------------------------------------|
B |--55555555555-------------------------------------|
F#|--33333333333-5555/777777777777-5555--------------|
B |--------------5555/777777777777-5555--------------|


E |--------------------------------------------------|
B |--------------------------------------------------|
G |--------------------------------------------------|
B |--55555555555-------------------------------------|
F#|--33333333333-5555/777777777777--00-0-0-----------|
B |--------------5555/777777777777--00-0-0-----------|
                                    .. . . 

Repeat verse riffs. listen for tricky timing

Repeat chorus.

I'll add the solo as i figure it out.



| /  slide up
| \  slide down
| h  hammer-on
| p  pull-off
| ~  vibrato
| +  harmonic
| x  Mute note
=============================================================
Добавлено: 06.05.2012
Другие материалы по этой песне:

Страница создана 24.02.2012
http://primanota.ru/karnivool/shutterspeed-chords.htm
Привет, Гость.
Предлагаем пройти революционный курс по гитаре.
Подарок от PrimaNota.Ru, забирай!