PrimaNota.ru - самый крупный в мире бесплатный архив песенных текстов, аккордов, табулатур и нот


Karnivool - Sewn And Silent - текст песни, таба, видео

Регистрация Запомнить меня
Войти через:  Facebook Google Twitter Vk Yandex Mail.ru

Karnivool - Sewn And Silent - текст песни, таба, видео

Печатать
Просмотров: 211
Hey this is my first tab and im actually a drummer so dont get harsh...haha...working 
out was a fluke and it has weird tuning cus thats how i worked it out...and im really 
dont know the whole song...i know the majority

Tuning (from low string to high):
Db, Ab, D, G, Bb, db

Intro/Verse:

|----------------0---------------------------------------------------|
|--------------------------------------------------------------------|
|--------5------------------5----------------------------------------|
|-----3----3-------------------3-------------------------------------|      (x3)
|--------------------------------------------------------------------|
|--4------------------0----------------------------------------------|

|----------------0----------------------------------------------------|
|---------------------------------------------------------------------|
|--------3-----------5----5-------------------------------------------|
|-----1----1-------------3--------------------------------------------|
|---------------------------------------------------------------------|
|--2------------------------------------------------------------------|


Just before the chorus play this palm muted:

|------------------------------------------------------------------|
|------------------------------------------------------------------|
|------------------------------------------------------------------|
|------------------------------------------------------------------|
|-2-2-2-2-5-5-5-5--------------------------------------------------|
|-2-2-2-2-5-5-5-5--------------------------------------------------|


Chorus (play all strings cept lowest):

|-0-0-0-0-0-0-0-0------------------------------------------------|
|-0-0-0-0-0-0-0-0------------------------------------------------|
|-0-0-0-0-0-0-0-0------------------------------------------------| (x2)
|-3-3-3-3-1-1-1-1------------------------------------------------|
|-2-2-2-2-0-0-0-0------------------------------------------------|
|----------------------------------------------------------------|

Solo:

|-----------------------------------------------------------------|
|---------------------------------------7-5-3h5-7-----------------|
|-5-5-5-5-5h6~-6h5~----5-5-5h6p5-5h6p5----------------------------|
|-------------------6~--------------------------------------------|
|-----------------------------------------------------------------|
|-----------------------------------------------------------------|


www.karnivool.com.au
Добавлено: 05.03.2012
Другие материалы по этой песне:
  • Аккорды и текст

Страница создана 05.03.2012
http://primanota.ru/karnivool/sewn-and-silent-chords.htm
Привет, Гость.
Предлагаем пройти революционный курс по гитаре.
Подарок от PrimaNota.Ru, забирай!